» » »

Blackfoot, Highway Song Tabs (ver.4)

Artists:  A B C D E F G H I J K L M N O P Q R S T U V W X Y Z # 

Highway Song Tabs (ver.4)

Blackfoot Tabs
 Rating:
4/5 (9 votes)
Highway Song lessons Tabs too difficult? Try these video lessons and learn fast
                -------------------------------------------------------------------------------
			     Highway Song - Blackfoot
-------------------------------------------------------------------------------

Tuning: Normal
Intro
    Em		    C       Dsus    Em              C        Dsus
e|----------0-------------------------------0--------------------------------|
B|--------------0---------1-------3-------------0---------1--------3---------|
G|--------0---0---0-----0-------0---------0---0---0-----0--------0-----------|
D|------2-------------2-------4---------2-------------2--------4-------------|
A|----2-------------3-------5---------2-------------3--------5---------------|
E|--0-------------------------------0----------------------------------------|

    Asus	    Em		    B7
e|----------0-------------0-----------------2--------------------------------|
B|--------0---0-------------0-------------0---0------------------------------|
G|------2-------2-------------0---------2-------2----------------------------|
D|----2-----------2-----2-------------1--------------------------------------|
A|--0-----------------2---------0-1-2----------------------------------------|
E|------------------0--------------------------------------------------------|

Chorus
	 C		       Dsus		     Em
e|-------0--0-0--0-0-0--0-0-0--0--0-0--0-0-0--0-0-0--0--0--0-0--0-0-0--0-0-0-|
B|-------1--1-1--1-1-1--1-1-1--3--3-3--3-3-3--3-3-3--0--0--0-0--0-0-0--0-0-0-|
G|-------0--0-0--0-0-0--0-0-0--0--0-0--0-0-0--0-0-0--0--0--0-0--0-0-0--0-0-0-|
D|-------2--2-2--2-2-2--2-2-2--4--4-4--4-4-4--4-4-4--2--2--2-2--2-2-2--2-2-2-|
A|-0--2--3--3-3--3-3-3--3-3-3--5--5-5--5-5-5--5-5-5--2--2--2-2--2-2-2--2-2-2-|
E|---------------------------------------------------0--0--0-0--0-0-0--0-0-0-|

| /  slide up
| \  slide down
| h  hammer-on
| p  pull-off
| ~  vibrato
| +  harmonic
| x  Mute note
===============================================================================
            
Submit corrections

comments powered by Disqus
↑ Back to top | Blackfoot Tabs for Highway Song. Lyrics for acoustic guitar and electric guitar. Tablatures and chords are parodies/interpretations of the original songs. You may use it for private study, scholarship, research or language learning purposes only