>
 >
Good Morning

Good Morning Guitar Tabs

Blackfoot - Good Morning chords, tabs, tablatures, lyrics

Guitar lessons | Add/correct | Request | Top 50 tabs Artists:  A B C D E F G H I J K L M N O P Q R S T U V W X Y Z 0-9

Good Morning Guitar Tabs – Blackfoot

CD, Sheet music, Poster

Do you like Good Morning? Share with your friends now
Tabs
1. 			     Good Morning- Blackfoot
2.                                Marauder- 1981
3.               Words and Music by Rick Medlocke and Jakson Spires


This tab will be operating in several different ways from the tabs I have
produced up to this point. First, unlike previous tabs were I alternated in
each section between both guitars, this tab will be broken down as follows:
All of the first guitars rhythm to include the solos, then the second guitar
in the same manner. Future tabs may continue in this structure from now on.
Secondly: Due to the nature of this song having limited chord changes for
long periods, using the form from the past of denoting the chord fingering 
and repeating it for each strum would be unhelpful and tedious. So the chord
fingerings will be shown where the changes occur followed by the note
values and rhythmic pattern afterwards. I hope you will find this new
format, along with this special notation system, helpful.


Tuning: Standard

1st Guitar
Intro:(fade in on first chord)
e|--------------------|-----------------------------|
B|--------------------|-----------------------------|
G|--------------------|-----------------------------|
D|--------------------|--------------------------2--|
A|--2-----------------|--4--4--4--4--4--4--4--4--0--|
E|--0----2/15----15\--|--0--2--0--0--2--0--0--2-----|

e|-----------------------------|-----------------------------|
B|-----------------------------|--------------------------3--|
G|--------------------------4--|--------------------------2--|
D|--------------------------4--|--------------------------0--|
A|--4--4--4--4--4--4--4--4--2--|--4--4--4--4--4--4--4--4-----|
E|--0--2--0--0--2--0--0--2-----|--0--2--0--0--2--0--0--2-----|

e|-----------------|
B|-----------------|
G|-----------------|
D|-----------------|
A|--4--4--4--4--4--|
E|--0--2--0--0--2--|

 Intro Solo                                     
e|-------------------------------------------------------------------------|
B|--5b--5br--2--5----+12br--10------------7-----*--*--*--------------------|
G|--------------4b--------------11---4/6-----6--9--8--6--6--4--2--4--+4br--|
D|-------------------------------------------------------------------------|
A|-------------------------------------------------------------------------|
E|-------------------------------------------------------------------------|

e|----------------------|
B|----------------------|
G|--2--4--2-------------|
D|-----------4----------|
A|------------\----/----|
E|-------------\-/------|

1st Verse                  
                 p.m. --------     
    e /e  s  sr  s  s  s  s  s  sr  s  s  sr  e  sr
e|-------------------------------------------------|---------------------|
B|-------------------------------------------------|---------------------|
G|-------------------------------------------------|----------9---9---8--|
D|--7/9--------------------------------------------|--9---9---9---9---9--|
A|--7/9--------------------------------------------|--9---9---7---7------|
E|--5/7--------------------------------------------|--7---7--------------|

                 p.m. --------              
    e /e  s  sr  s  s  s  s  s  sr  s  s  sr  e  sr
e|-------------------------------------------------|---------------------|
B|-------------------------------------------------|---------------------|
G|-------------------------------------------------|----------9---9---8--|
D|--7/9--------------------------------------------|--9---9---9---9---9--|
A|--7/9--------------------------------------------|--9---9---7---7------|
E|--5/7--------------------------------------------|--7---7--------------|
                            
                 p.m. --------     
    e /e  s  sr  s  s  s  s  s  sr  s  s  sr  e  sr
e|-------------------------------------------------|------------------------|
B|-------------------------------------------------|------------------------|
G|-------------------------------------------------|-----------11---11---10-|
D|--9/11-------------------------------------------|-11---11---11---11---11-|
A|--9/11-------------------------------------------|-11---11---9----9-------|
E|--7/9--------------------------------------------|-9----9-----------------|
                            
                p.m. --------              
   e /e  s  sr  s  s  s s s sr s  s  sr  e sr  e  e  s  s  s  sr
e|--------------------------------------|-----------------------------------|
B|--------------------------------------|-----------------------------------|
G|--------------------------------------|-----------------------------------|
D|--9/11--------------------------------|-------------------------9----7----|
A|--9/11--------------------------------|-------------------------9----7----|
E|--7/9---------------------------------|-------------------------7----5----|

Bridge
e|-------------------------------|------------------------------|
B|-------------------------------|------------------------------|
G|-------------------------------|---------------------------4--|
D|---------------------------2---|---------------------------4--|
A|--4--4--4--4--4--4--4--4---0---|--4--4--4--4--4--4--4--4---2--|
E|--0--2--0--0--2--0--0--2-------|--0--2--0--0--2--0--0--2------|

e|-------------------------------|------------------------------|
B|---------------------------3---|------------------------------|
G|---------------------------2---|---------------------------2--|
D|---------------------------0---|---------------------------2--|
A|--4--4--4--4--4--4--4--4-------|--4--4--4--4--4--4----2----0--|
E|--0--2--0--0--2--0--0--2-------|--0--2--0--0--2--0----0-------|

2nd Verse                  
                 p.m. --------     
    e /e  s  sr  s  s  s  s  s  sr  s  s  sr  e  sr
e|-------------------------------------------------|---------------------|
B|-------------------------------------------------|---------------------|
G|-------------------------------------------------|----------9---9---8--|
D|--7/9--------------------------------------------|--9---9---9---9---9--|
A|--7/9--------------------------------------------|--9---9---7---7------|
E|--5/7--------------------------------------------|--7---7--------------|
             
                    p.m. --------             
    e /e  s  sr  s  s  s  s  s  sr  s  s  sr  e  sr
e|-------------------------------------------------|---------------------|
B|-------------------------------------------------|---------------------|
G|-------------------------------------------------|----------9---9---8--|
D|--7/9--------------------------------------------|--9---9---9---9---9--|
A|--7/9--------------------------------------------|--9---9---7---7------|
E|--5/7--------------------------------------------|--7---7--------------|
                            
                 p.m. --------     
    e /e  s  sr  s  s s  s  s  sr  s  s  sr e sr
e|-----------------------------------------------|--------------------------|
B|-----------------------------------------------|--------------------------|
G|-----------------------------------------------|------------11---11---10--|
D|--9/11-----------------------------------------|--11---11---11---11---11--|
A|--9/11-----------------------------------------|--11---11---9----9--------|
E|--7/9------------------------------------------|--9----9------------------|
                           
                 p.m. --------     
    e /e  s  sr  s  s  s  s  s  sr  s  s  sr e  sr
e|------------------------------------------------|-------------------------|
B|------------------------------------------------|-------------------------|
G|------------------------------------------------|------------11---9---6---|
D|--9/11------------------------------------------|--11---11---11---9---6---|
A|--9/11------------------------------------------|--11---11---9----7---4---|
E|--7/9-------------------------------------------|--9----9-----------------|

Chorus
e|--------------|--------------|--------------|
B|--------------|--------------|--------------|
G|--11---9---6--|--11---9---6--|--11---9---6--|
D|--11---9---6--|--11---9---6--|--11---9---6--|
A|--9----7---4--|--9----7---4--|--9----7---4--|
E|--------------|--------------|--------------|

    e/e  e  s s   e e s s e    e/e   e   s s    e e   s s 
e|--------------------------|--------------------------------------|
B|--------------------------|--------------------------------------|
G|--6/7---------------------|--7/9--------------------------9---7--| 
D|--6/7---------------------|--7/9--------------------------9---7--|
A|--4/5---------------------|--5/7--------------------------7---5--|
E|--------------------------|--------------------------------------|
   
     e  s  s  e  s  s  e  e   s   s   e   e   s   s   e   s   s
e|--------------------------------------------------------------------------|
B|--------------------------------------------------------------------------| 
G|--6--------------------------------------------------------------4----2---| 
D|--6--------------------------------------------------------------4----2---| 
A|--4--------------------------------------------------------------2----0---| 
E|--------------------------------------------------------------------------|

Bridge
e|-------------------------------|-------------------------------|
B|-------------------------------|-------------------------------|
G|-------------------------------|---------------------------4---|
D|---------------------------2---|---------------------------4---|
A|--4--4--4--4--4--4--4--4---0---|--4--4--4--4--4--4--4--4---2---|
E|--0--2--0--0--2--0--0--2-------|--0--2--0--0--2--0--0--2-------|

e|-------------------------------|-------------------------------|
B|---------------------------3---|-------------------------------|
G|---------------------------2---|---------------------------2---|
D|---------------------------0---|---------------------------2---|
A|--4--4--4--4--4--4--4--4-------|--4--4--4--4--4--4----2----0---|
E|--0--2--0--0--2--0--0--2-------|--0--2--0--0--2--0----0--------|

Breakdown
e|-------------------------|----------------------------------------------|
B|-------------------------|-------------------------------------------8b-|
G|--9--------7--5--------3-|--------x--x--x--x--------x--x--x--x----------|
D|--9--9--5--7--5--5--3--3-|--2--2--x--x--x--x--2--2--x--x--x--x--2-------|
A|--7--9--5--5--3--5--3--1-|--2--2--x--x--x--x--2--2--x--x--x--x--2-------|
E|-----7--7--------3--1----|--0--0--x--x--x--x--0--0--x--x--x--x--0-------|

e|-------------------------|---------------------------|
B|-------------------------|---------------------------|
G|--9--------7--5--------3-|---------------------------|
D|--9--9--5--7--5--5--3--3-|---------------------------|
A|--7--9--5--5--3--5--3--1-|--2--3--4--5--6--7--8--9---|
E|-----7--7--------3--1----|--0--1--2--3--4--5--6--7---|

e|-------------------------|----------------------------------------------|
B|-------------------------|-------------------------------------------8b-|
G|--9--------7--5--------3-|--------x--x--x--x--------x--x--x--x----------|
D|--9--9--5--7--5--5--3--3-|--2--2--x--x--x--x--2--2--x--x--x--x--2-------|
A|--7--9--5--5--3--5--3--1-|--2--2--x--x--x--x--2--2--x--x--x--x--2-------|
E|-----7--7--------3--1----|--0--0--x--x--x--x--0--0--x--x--x--x--0-------|

e|-------------------------|---------------------------|--------------------|
B|-------------------------|---------------------------|--------------------| 
G|--9--------7--5--------3-|---------------------------|--------------------| 
D|--9--9--5--7--5--5--3--3-|---------------------------|--------------------| 
A|--7--9--5--5--3--5--3--1-|--2--3--4--5--6--7--8--9---|--4--5--6--7--8--9--| 
E|-----7--7--------3--1----|--0--1--2--3--4--5--6--7---|--2--3--4--5--6--7--|

Main Solo
e|--------------------------------------------------------------------------|
B|-----------v--------------------------12b------------12--9--12p9------9---| 
G|--11br--9--11br--9h11p9--11--9-----------\/\/\/\/\/\/-------------11------| 
D|------------------------------\----/--------------------------------------| 
A|-------------------------------\--/---------------------------------------| 
E|--------------------------------\/----------------------------------------|

e|----------------------------------------------------------------------|
B|----------------------------------------------------------------------|
G|--11p9------9--11p9------9--11br--9--------------------*------9-------|
D|--------11-----------11--------------11------------*---9--*------11---|
A|---------------------------------------\--------8/11------11----------|
E|----------------------------------------\/\/\/\/----------------------|

e|------------------------------------9-------------------------|
B|-----------------12-------------12-----12b--12b--12br--9--12--|
G|--11------9--11------11--9--11--------------------------------|
D|------11------------------------------------------------------|
A|--------------------------------------------------------------|
E|--------------------------------------------------------------|

e|-----------------------------------------------------------------------20b-|
B|--------12-----14---------14b--14b--14br--12--14-------17--19p17----17-----| 
G|-11/13-----13-----13--12-------------------------14/18------------18-------| 
D|---------------------------------------------------------------------------| 
A|---------------------------------------------------------------------------| 
E|---------------------------------------------------------------------------|

Played under guitar II Solo
e|--------------|--------------|--------------|
B|--------------|--------------|--------------|
G|--11---9---6--|--11---9---6--|--11---9---6--|
D|--11---9---6--|--11---9---6--|--11---9---6--|
A|--9----7---4--|--9----7---4--|--9----7---4--|
E|--------------|--------------|--------------|

Vocals back in
         e/e  e  s s   e e s s e    e/e   e   s s    e e   s s 
e|-------------------------------|-----------------------------| 
B|-------------------------------|-----------------------------| 
G|--6/7--------------------------|--7/9-----------------9---7--| 
D|--6/7--------------------------|--7/9-----------------9---7--|
A|--4/5--------------------------|--5/7-----------------7---5--| 
E|-------------------------------|-----------------------------|
 
     e  s  s  e  s  s  e  e   s   s   e   e   s   s   e   s   s
e|--------------------------------------------------------------------------|
B|--------------------------------------------------------------------------| 
G|--6--------------------------------------------------------------4----2---| 
D|--6--------------------------------------------------------------4----2---| 
A|--4--------------------------------------------------------------2----0---|
E|--------------------------------------------------------------------------|

Bridge
e|-------------------------------|-------------------------------|
B|-------------------------------|-------------------------------|
G|-------------------------------|---------------------------4---|
D|---------------------------2---|---------------------------4---|
A|--4--4--4--4--4--4--4--4---0---|--4--4--4--4--4--4--4--4---2---|
E|--0--2--0--0--2--0--0--2-------|--0--2--0--0--2--0--0--2-------|

e|-------------------------------|-------------------------------|
B|---------------------------3---|-------------------------------|
G|---------------------------2---|---------------------------2---|
D|---------------------------0---|---------------------------2---|
A|--4--4--4--4--4--4--4--4-------|--4--4--4--4--4--4----2----0---|
E|--0--2--0--0--2--0--0--2-------|--0--2--0--0--2--0----0--------|  

3rd Verse
                    p.m. --------     
    e /e  s  sr  s  s  s  s  s  sr  s  s  sr  e  sr
e|--------------------------------------------------|---------------------|
B|--------------------------------------------------|---------------------|
G|--------------------------------------------------|----------9---9---8--|
D|--7/9---------------------------------------------|--9---9---9---9---9--|
A|--7/9---------------------------------------------|--9---9---7---7------|
E|--5/7---------------------------------------------|--7---7--------------|
           
                 p.m. --------             
    e /e  s  sr  s  s  s  s  s  sr  s  s  sr  e  sr
e|--------------------------------------------------|---------------------|
B|--------------------------------------------------|---------------------|
G|--------------------------------------------------|----------9---9---8--|
D|--7/9---------------------------------------------|--9---9---9---9---9--|
A|--7/9---------------------------------------------|--9---9---7---7------|
E|--5/7---------------------------------------------|--7---7--------------|
                           
                 p.m. --------     
    e /e  s  sr  s  s  s  s  s  sr  s  s  sr  e  sr
e|--------------------------------------------------|-----------------------|
B|--------------------------------------------------|-----------------------|
G|--------------------------------------------------|---------11---11---10--|
D|--9/11--------------------------------------------|-11--11--11---11---11--|
A|--9/11--------------------------------------------|-11--11--9----9--------|
E|--7/9---------------------------------------------|-9---9-----------------|
  
                            p.m. --------     
    e /e  s  sr  s  s  s  s  s  sr  s  s  sr  e  sr
e|--------------------------------------------------|-----------------------|
B|--------------------------------------------------|-----------------------|
G|--------------------------------------------------|----------11---9---6---|
D|--9/11--------------------------------------------|-11---11--11---9---6---|
A|--9/11--------------------------------------------|-11---11--9----7---4---|
E|--7/9---------------------------------------------|-9----9----------------|

Chorus
e|--------------|--------------|--------------|
B|--------------|--------------|--------------|
G|--11---9---6--|--11---9---6--|--11---9---6--|
D|--11---9---6--|--11---9---6--|--11---9---6--|
A|--9----7---4--|--9----7---4--|--9----7---4--|
E|--------------|--------------|--------------|
   
    e/e  e  s s  e  e  s  s  e    e/e  e  s  s  e  e  s  s 
e|-----------------------------|-----------------------------------| 
B|-----------------------------|-----------------------------------| 
G|--6/7------------------------|--7/9-----------------------9---7--| 
D|--6/7------------------------|--7/9-----------------------9---7--| 
A|--4/5------------------------|--5/7-----------------------7---5--| 
E|-----------------------------|-----------------------------------|

    e  s  s  e  s  s  e  e   s   s   e   e   s   s   e   s   s
e|--------------------------------------------------------------------------|
B|--------------------------------------------------------------------------| 
G|--6--------------------------------------------------------------4----2---| 
D|--6--------------------------------------------------------------4----2---| 
A|--4--------------------------------------------------------------2----0---| 
E|--------------------------------------------------------------------------|

Bridge
e|-------------------------------|-------------------------------|
B|-------------------------------|-------------------------------|
G|-------------------------------|---------------------------4---|
D|---------------------------2---|---------------------------4---|
A|--4--4--4--4--4--4--4--4---0---|--4--4--4--4--4--4--4--4---2---|
E|--0--2--0--0--2--0--0--2-------|--0--2--0--0--2--0--0--2-------|

e|-------------------------------|--------------------|
B|---------------------------3---|--------------------|
G|---------------------------2---|--------------------|
D|---------------------------0---|--------------------|
A|--4--4--4--4--4--4--4--4-------|--4--4--4--4--4--4--|
E|--0--2--0--0--2--0--0--2-------|--0--2--0--0--2--0--|  

Outro Solo
e|-----------------14-----------------------------------------------------|
B|-------------14------17b--17--17b--17b--17br--14--17--17br--17br--17br--|
G|--12/14--16-------------------------------------------------------------|
D|------------------------------------------------------------------------|
A|------------------------------------------------------------------------|
E|------------------------------------------------------------------------|

e|----------------------------------------------------------|
B|--17br--17br--17br--17br--17br----------------------------|
G|--------------------------------16br--14------16--14------|
D|------------------------------------------16----------16--|
A|----------------------------------------------------------|
E|----------------------------------------------------------|

e|------------------------------------------------------------------------|
B|-------2--5b--5--2--5b--5--2--------------------------------------------|
G|--2/4-------------------------4b--4b--+4br--2--4b--4br--2--4br--2--4br--|
D|------------------------------------------------------------------------|
A|------------------------------------------------------------------------|
E|------------------------------------------------------------------------|

e|----------------------------------|
B|----------------------------------|
G|--2------4br--2-------------------|
D|---\----/--------4----------------|
A|----\--/----------\---------------|
E|-----\/------------\/\/\/\/\/\----|

e|-------------------------|----------------------------------------------|
B|-------------------------|-------------------------------------------8b-|
G|--9--------7--5--------3-|--------x--x--x--x--------x--x--x--x----------|
D|--9--9--5--7--5--5--3--3-|--2--2--x--x--x--x--2--2--x--x--x--x--2-------|
A|--7--9--5--5--3--5--3--1-|--2--2--x--x--x--x--2--2--x--x--x--x--2-------|
E|-----7--7--------3--1----|--0--0--x--x--x--x--0--0--x--x--x--x--0-------|

e|-------------------------|---------|
B|-------------------------|---------|
G|--9--------7--5--------3-|---------|
D|--9--9--5--7--5--5--3--3-|----2----|
A|--7--9--5--5--3--5--3--1-|----2----|
E|-----7--7--------3--1----|----0----|


Guitar II

Intro:(fade in on first chord slightly after guitar I)
(all of first measure played behind Guitar I in time)
e|--------------------|-----------------------------|
B|--------------------|-----------------------------|
G|--------------------|-----------------------------|
D|--------------------|--------------------------2--|
A|--2-----------------|--4--4--4--4--4--4--4--4--0--|
E|--0----2/15----15\--|--0--2--0--0--2--0--0--2-----|

e|-------------------------------|-------------------------------|
B|-------------------------------|-------------------------------|
G|-------------------------------|---------------------------4---|
D|---------------------------2---|---------------------------4---|
A|--4--4--4--4--4--4--4--4---0---|--4--4--4--4--4--4--4--4---2---|
E|--0--2--0--0--2--0--0--2-------|--0--2--0--0--2--0--0--2-------|

e|-------------------------------|-------------------------------|
B|---------------------------3---|-------------------------------|
G|---------------------------2---|---------------------------2---|
D|---------------------------0---|---------------------------2---|
A|--4--4--4--4--4--4--4--4-------|--4--4--4--4--4--4----2----0---|
E|--0--2--0--0--2--0--0--2-------|--0--2--0--0--2--0----0--------|

e|-------------------------------|-------------------------------|
B|-------------------------------|-------------------------------|
G|-------------------------------|---------------------------4---|
D|---------------------------2---|---------------------------4---|
A|--4--4--4--4--4--4--4--4---0---|--4--4--4--4--4--4--4--4---2---|
E|--0--2--0--0--2--0--0--2-------|--0--2--0--0--2--0--0--2-------|

e|-------------------------------|---------------------------|
B|---------------------------3---|---------------------------|
G|---------------------------2---|-----------------------2---|
D|---------------------------0---|-----------------------2---|
A|--4--4--4--4--4--4--4--4-------|--4--4--4--4--4---2----0---|
E|--0--2--0--0--2--0--0--2-------|--0--2--0--0--2---0--------|

1st verse
    e/e   e  s  s  e  e  e  s  s  e
e|---------------------------------|-------------------|
B|---------------------------------|-------------------|
G|---------------------------------|--------9--7-------|
D|--7/9----------------------------|--9--9--9--7--9----|
A|--7/9----------------------------|--9--9--------9----|
E|--5/7----------------------------|--7--7-------------|

    e/e   e  s  s  e  e  e  s  s  e
e|---------------------------------|-------------------|
B|---------------------------------|-------------------|
G|---------------------------------|--------9--7-------|
D|--7/9----------------------------|--9--9--9--7--9----|
A|--7/9----------------------------|--9--9--------9----|
E|--5/7----------------------------|--7--7-------------|

    e/e   e  s  s  e  e  e  s  s  e
e|----------------------------------|---------------------|
B|----------------------------------|---------------------|
G|----------------------------------|----------11--9------|
D|--9/11----------------------------|--11--11--11--9--11--|
A|--9/11----------------------------|--11--11---------11--|
E|--7/9-----------------------------|--9---9--------------|

    e/e   e  s  s  e  e  e  s  s  e   e   e   s   s   s
e|--------------------------------------------------------------------|
B|--------------------------------------------------------------------|
G|--------------------------------------------------------------------|
D|--9/11-----------------------------------------------------9----7---|
A|--9/11-----------------------------------------------------9----7---|
E|--7/9------------------------------------------------------7----5---|

Bridge
e|-------------------------------|----------------|
B|-------------------------------|----------------|
G|-------------------------------|------------4---|
D|---------------------------2---|------------4---|
A|--4--4--4--4--4--4--4--4---0---|--4--4--4---2---|
E|--0--2--0--0--2--0--0--2-------|--0--0--2-------|

e|----------------|------------------------|
B|------------3---|------------------------|
G|------------2---|--------------------2---|
D|------------0---|--------------------2---|
A|--4--4--4-------|--4--4--4------2----0---|
E|--0--0--2-------|--0--0--2------0--------|  

2nd Verse
    e/e   e  s  s  e  e  e  s  s  e
e|---------------------------------|-------------------|
B|---------------------------------|-------------------|
G|---------------------------------|--------9--7-------|
D|--7/9----------------------------|--9--9--9--7--9----|
A|--7/9----------------------------|--9--9--------9----|
E|--5/7----------------------------|--7--7-------------|

    e/e   e  s  s  e  e  e  s  s  e
e|---------------------------------|-------------------|
B|---------------------------------|-------------------|
G|---------------------------------|--------9--7-------|
D|--7/9----------------------------|--9--9--9--7--9----|
A|--7/9----------------------------|--9--9--------9----|
E|--5/7----------------------------|--7--7-------------|
 
    e/e   e  s  s  e  e  e  s  s  e
e|----------------------------------|---------------------|
B|----------------------------------|---------------------|
G|----------------------------------|----------11--9------|
D|--9/11----------------------------|--11--11--11--9--11--|
A|--9/11----------------------------|--11--11---------11--|
E|--7/9-----------------------------|--9---9--------------|
 

    e/e   e  s  s  e  e  e  s  s  e   e   e
e|------------------------------------------------------------|
B|------------------------------------------------------------|
G|---------------------------------------------11---9---6-----|
D|--9/11---------------------------------------11---9---6-----|
A|--9/11---------------------------------------9----7---4-----|
E|--7/9-------------------------------------------------------|

Chorus            @-----                      @-----
e|----------|-----4----------|----------|-----4----------|
B|----------|--------4--4h5--|----------|--------4--4h5--|
G|-------1--|--6--6----------|-------1--|--6--6----------|
D|--4----2--|--6--------6----|--4----2--|--6--------6----|
A|--4----2--|--4-------------|--4----2--|--4-------------|
E|--2----0--|----------------|--2----0--|----------------|

                  @-----        @----------------
e|----------|-----4----------|-----5-----5-----5-----7-----7------------|
B|----------|--------4--4h5--|--3-----3-----3-----5-----5---------------|
G|-------1--|--6--6----------|----------------------------------9---7---|
D|--4----2--|--6--------6----|----------------------------------9---7---|
A|--4----2--|--4-------------|----------------------------------7---5---|
E|--2----0--|----------------|------------------------------------------|

       p.m--------------------------------------------------------------
   e   s   s   s   s   s   s   s   s   s   s   s   s   s   s   s   s   s
e|------------------------------------------------------------------------|
B|------------------------------------------------------------------------|
G|------------------------------------------------------------------------|
D|--6---------------------------------------------------------------------|
A|--4---------------------------------------------------------------------|
E|------------------------------------------------------------------------|

   -----------------
   s   s   s   s   s
e|------------------------------|
B|------------------------------|
G|----------------------4---2---|
D|----------------------4---2---|
A|----------------------2---0---|
E|------------------------------|

Bridge
e|-------------------------------|----------------|
B|-------------------------------|----------------|
G|-------------------------------|------------4---|
D|---------------------------2---|------------4---|
A|--4--4--4--4--4--4--4--4---0---|--4--4--4---2---|
E|--0--2--0--0--2--0--0--2-------|--0--0--2-------|

e|----------------|------------------------|
B|------------3---|------------------------|
G|------------2---|--------------------2---|
D|------------0---|--------------------2---|
A|--4--4--4-------|--4--4--4------2----0---|
E|--0--0--2-------|--0--0--2------0--------|  

Breakdown
e|-------------------------|----------------------------------------------|
B|-------------------------|-------------------------------------------8b-|
G|--9--------7--5--------3-|--------x--x--x--x--------x--x--x--x----------|
D|--9--9--5--7--5--5--3--3-|--2--2--x--x--x--x--2--2--x--x--x--x--2-------|
A|--7--9--5--5--3--5--3--1-|--2--2--x--x--x--x--2--2--x--x--x--x--2-------|
E|-----7--7--------3--1----|--0--0--x--x--x--x--0--0--x--x--x--x--0-------|

e|-------------------------|---------------------------|
B|-------------------------|---------------------------|
G|--9--------7--5--------3-|---------------------------|
D|--9--9--5--7--5--5--3--3-|---------------------------|
A|--7--9--5--5--3--5--3--1-|--2--3--4--5--6--7--8--9---|
E|-----7--7--------3--1----|--0--1--2--3--4--5--6--7---|

e|-------------------------|----------------------------------------------|
B|-------------------------|-------------------------------------------8b-|
G|--9--------7--5--------3-|--------x--x--x--x--------x--x--x--x----------|
D|--9--9--5--7--5--5--3--3-|--2--2--x--x--x--x--2--2--x--x--x--x--2-------|
A|--7--9--5--5--3--5--3--1-|--2--2--x--x--x--x--2--2--x--x--x--x--2-------|
E|-----7--7--------3--1----|--0--0--x--x--x--x--0--0--x--x--x--x--0-------|

e|------------------------|------------------------|-------------------------|
B|------------------------|------------------------|-------------------------| 
G|-9--------7--5--------3-|------------------------|-------------------------| 
D|-9--9--5--7--5--5--3--3-|------------------------|-------------------------| 
A|-7--9--5--5--3--5--3--1-|-2--3--4--5--6--7--8--9-|-4--5--6--7--8--9--10-11-| 
E|----7--7--------3--1----|-0--1--2--3--4--5--6--7-|-2--3--4--5--6--7--8--9--|

Main Solo
     e   e   s   s   e   e   e   s   s   e   e   s   s
e|--------------------------------------------------------------------------|
B|--------------------------------------------------------------------------| 
G|--------------------------------------------------------11--11--9---------| 
D|--------------------------------------------------------11--11--9---------|
A|--11---------------------------------------------------------------9--10--| 
E|--9----------------------------------------------------------------7--8---|

     e   e   s   s   e   e   e   s   s   e   e   s   s
e|--------------------------------------------------------------------------|
B|--------------------------------------------------------------------------|
G|--------------------------------------------------------11--11--9---------| 
D|--------------------------------------------------------11--11--9---------| 
A|--11---------------------------------------------------------------9--10--| 
E|--9----------------------------------------------------------------7--8---|

     e   e   s   s   e   e   e   s   s   e   e   s   s
e|--------------------------------------------------------------------------|
B|--------------------------------------------------------------------------| 
G|--------------------------------------------------------11--11--9---------| 
D|--------------------------------------------------------11--11--9---------| 
A|--11---------------------------------------------------------------9--10--| 
E|--9----------------------------------------------------------------7--8---|

     e   e   s   s   e   e   e   s   s   e   e   s   s
e|--------------------------------------------------------------------|
B|--------------------------------------------------------------------|
G|--------------------------------------------------------11--11--9---|
D|--------------------------------------------------------11--11--9---|
A|--11----------------------------------------------------------------|
E|--9-----------------------------------------------------------------|         

     @
e|------------------------------------------------------|
B|--12----12---12-----------------------------9---------|
G|--11b---11p9h11----------------------9--11-----9------|
D|-----------------------9--11--9--11---------------11--|
A|-----------------9/11---------------------------------|
E|------------------------------------------------------|

          @
e|-------------------------9----------------------------------|
B|--12----12---12-------9-----12b--12p9------9----------------|
G|--11b---11p9h11--11b-------------------11-----11p9----------|
D|----------------------------------------------------11--11--|
A|------------------------------------------------------------|
E|------------------------------------------------------------|

           @
e|------------------------------------------------------|
B|--12----12---12-----------------------------9---------|
G|--11b---11p9h11----------------------9--11-----9------|
D|-----------------------9--11--9--11---------------11--|
A|-----------------9/11---------------------------------|
E|------------------------------------------------------|    

    @---------------
e|-----5-----5-----5-----7-----7------------|
B|--3-----3-----3-----5-----5---------------|
G|----------------------------------9---7---|
D|----------------------------------9---7---|
A|----------------------------------7---5---|
E|------------------------------------------|

        p.m--------------------------------------------------------------
    e   s   s   s   s   s   s   s   s   s   s   s   s   s   s   s   s   s
e|------------------------------------------------------------------------|
B|------------------------------------------------------------------------|
G|------------------------------------------------------------------------|
D|--6---------------------------------------------------------------------|
A|--4---------------------------------------------------------------------|
E|------------------------------------------------------------------------|
   -----------------
   s   s   s   s   s
e|------------------------------|
B|------------------------------|
G|----------------------4---2---|
D|----------------------4---2---|
A|----------------------2---0---|
E|------------------------------|

Bridge
e|-------------------------------|----------------|
B|-------------------------------|----------------|
G|-------------------------------|------------4---|
D|---------------------------2---|------------4---|
A|--4--4--4--4--4--4--4--4---0---|--4--4--4---2---|
E|--0--2--0--0--2--0--0--2-------|--0--0--2-------|

e|----------------|------------------------|
B|------------3---|------------------------|
G|------------2---|--------------------2---|
D|------------0---|--------------------2---|
A|--4--4--4-------|--4--4--4------2----0---|
E|--0--0--2-------|--0--0--2------0--------|  

3rd Verse
    e/e   e  s  s  e  e  e  s  s  e
e|---------------------------------|-------------------|
B|---------------------------------|-------------------|
G|---------------------------------|--------9--7-------|
D|--7/9----------------------------|--9--9--9--7--9----|
A|--7/9----------------------------|--9--9--------9----|
E|--5/7----------------------------|--7--7-------------|

    e/e   e  s  s  e  e  e  s  s  e
e|---------------------------------|-------------------|
B|---------------------------------|-------------------|
G|---------------------------------|--------9--7-------|
D|--7/9----------------------------|--9--9--9--7--9----|
A|--7/9----------------------------|--9--9--------9----|
E|--5/7----------------------------|--7--7-------------|

    e/e   e  s  s  e  e  e  s  s  e
e|----------------------------------|---------------------|
B|----------------------------------|---------------------|
G|----------------------------------|----------11--9------|
D|--9/11----------------------------|--11--11--11--9--11--|
A|--9/11----------------------------|--11--11---------11--|
E|--7/9-----------------------------|--9---9--------------|
    e/e   e  s  s  e  e  e  s  s  e   e   e
e|------------------------------------------------------------|
B|------------------------------------------------------------|
G|---------------------------------------------11---9---6-----|
D|--9/11---------------------------------------11---9---6-----|
A|--9/11---------------------------------------9----7---4-----|
E|--7/9-------------------------------------------------------|

Chorus           

                  @-----                      @-----
e|----------|-----4----------|----------|-----4----------|
B|----------|--------4--4h5--|----------|--------4--4h5--|
G|-------1--|--6--6----------|-------1--|--6--6----------|
D|--4----2--|--6--------6----|--4----2--|--6--------6----|
A|--4----2--|--4-------------|--4----2--|--4-------------|
E|--2----0--|----------------|--2----0--|----------------|

                  @-----        @----------------
e|----------|-----4----------|-----5-----5-----5-----7-----7------------|
B|----------|--------4--4h5--|--3-----3-----3-----5-----5---------------|
G|-------1--|--6--6----------|----------------------------------9---7---|
D|--4----2--|--6--------6----|----------------------------------9---7---|
A|--4----2--|--4-------------|----------------------------------7---5---|
E|--2----0--|----------------|------------------------------------------|

       p.m--------------------------------------------------------------
   e   s   s   s   s   s   s   s   s   s   s   s   s   s   s   s   s   s
e|------------------------------------------------------------------------|
B|------------------------------------------------------------------------|
G|------------------------------------------------------------------------|
D|--6---------------------------------------------------------------------|
A|--4---------------------------------------------------------------------|
E|------------------------------------------------------------------------|
 
   -----------------
   s   s   s   s   s
e|------------------------------|
B|------------------------------|
G|----------------------4---2---|
D|----------------------4---2---|
A|----------------------2---0---|
E|------------------------------|

Outro
e|-------------------------------|----------------|
B|-------------------------------|----------------|
G|-------------------------------|------------4---|
D|---------------------------2---|------------4---|
A|--4--4--4--4--4--4--4--4---0---|--4--4--4---2---|
E|--0--2--0--0--2--0--0--2-------|--0--0--2-------|

e|----------------|------------------------|
B|------------3---|------------------------|
G|------------2---|--------------------2---|
D|------------0---|--------------------2---|
A|--4--4--4-------|--4--4--4------2----0---|
E|--0--0--2-------|--0--0--2------0--------| 

e|-------------------------------|-------------------------------|
B|-------------------------------|-------------------------------|
G|-------------------------------|---------------------------4---|
D|---------------------------2---|---------------------------4---|
A|--4--4--4--4--4--4--4--4---0---|--4--4--4--4--4--4--4--4---2---|
E|--0--2--0--0--2--0--0--2-------|--0--2--0--0--2--0--0--2-------|

e|-------------------------------|-------------------------------|
B|---------------------------3---|-------------------------------|
G|---------------------------2---|---------------------------2---|
D|---------------------------0---|---------------------------2---|
A|--4--4--4--4--4--4--4--4-------|--4--4--4--4--4--4----2----0---|
E|--0--2--0--0--2--0--0--2-------|--0--2--0--0--2--0----0--------|

e|-------------------------------|-------------------------------|
B|-------------------------------|-------------------------------|
G|-------------------------------|---------------------------4---|
D|---------------------------2---|---------------------------4---|
A|--4--4--4--4--4--4--4--4---0---|--4--4--4--4--4--4--4--4---2---|
E|--0--2--0--0--2--0--0--2-------|--0--2--0--0--2--0--0--2-------|

e|-------------------------------|-------------------------------|
B|---------------------------3---|-------------------------------|
G|---------------------------2---|---------------------------2---|
D|---------------------------0---|---------------------------2---|
A|--4--4--4--4--4--4--4--4-------|--4--4--4--4--4--4----2----0---|
E|--0--2--0--0--2--0--0--2-------|--0--2--0--0--2--0----0--------|

Breakdown
e|-------------------------|----------------------------------------------|
B|-------------------------|-------------------------------------------8b-|
G|--9--------7--5--------3-|--------x--x--x--x--------x--x--x--x----------|
D|--9--9--5--7--5--5--3--3-|--2--2--x--x--x--x--2--2--x--x--x--x--2-------|
A|--7--9--5--5--3--5--3--1-|--2--2--x--x--x--x--2--2--x--x--x--x--2-------|
E|-----7--7--------3--1----|--0--0--x--x--x--x--0--0--x--x--x--x--0-------|

e|-------------------------|--------|
B|-------------------------|--------|
G|--9--------7--5--------3-|--------|
D|--9--9--5--7--5--5--3--3-|----2---|
A|--7--9--5--5--3--5--3--1-|----2---|
E|-----7--7--------3--1----|----0---|




************************************
| /   slide up
| \   slide down
| h   hammer-on
| p   pull-off
| ~   vibrato
| +   Pinch harmonic
| *   Mute note
| b   Bend
| pb  Pre-bend
| br  Bend release
| pbr Pre-bend release
| brb Bend release bend
| p.m Plam Mute
| @   Let ring
| e   Eighth note
| s   Sixteenth note
| sr  Sixteenth rest
************************************

Intro

E

Play twice
F#/E F# F#/E F# F#/E F# A

F#/E F# F#/E F# F#/E F# B

F#/E F# F#/E F# F#/E F# D

F#/E F# F#/E F# E A

1st Verse

A B                                                 E         D
Well it's minus five outside your house and nintey degrees in bed 

A B                                                  E    D
your wife says get up and go to work you long haired lazy head

B C#                                                F#         E
now I know where you been all night and maybe whats wrong with you 

B C#                                              B      A
been makin' love to a little woman on a midnight rendezvous 


F#/E F# F#/E F# F#/E F# A
good morning

F#/E F# F#/E F# F#/E F# B

F#/E F# F#/E F# F#/E F# D

F#/E F# F#/E F# E A

2nd Verse

A B                                             E          D
Now the young exec he hits the deck and oh he's dressed to kill

A B                                                 E     D  B
before he goes oh yes he knows he's gotta to have a wake up pill

B C#                                           F#          E    

B C#                                                      F#   E  C#
but the young exec he hit the deck cause he's little pill let him down 

Chorus

F#   E     C#
Good Morning 

F#   E     C#
Good Morning 

F#   E     C#
Good Morning 

   D                          E                           D  C#
so put a smile upon your face being alive is no disgrace 

                                                    B    A      
you can make it a better place by havin' yourself a good morning 

F#/E      F#        F#/E     F# F#/E F# A
I hate gettin up gettin up 

F#/E F# F#/E F# F#/E F# B

F#/E F# F#/E F# F#/E F# D

F#/E F# F#/E F# E A

Break down

E B A D C G F Bb E

E B A D C G F Bb

E F F# G G# A A# B

E B A D C G F Bb E

E B A D C G F Bb

E F F# G G# A A# B

F F# G G# A A# B B#

Solo 

C# F# E B B#

C# F# E B B#

C# F# E B B#

C# F# E B B#

F#  E  C#

F#  E  C#

F#  E  C#

   D                          E                       D   C#
so put a smile upon your face being alive is no disgrace 

                                                    B    A     F#
you can make it a better place by havin' yourself a good morning 

3rd Verse

A B                                               E     D
Well the sun is up let's lift a cup and do it all over again 

A B                                           E        D
a little blood and a lot of sweat hard workin aint no sin 

B C#                                              F#    E
don't sit around wear-in' a frown your not gonna slip away 

B C#                                          F#     E   C#
give a bump and a little hump it's gonna be a beautiful day 

F#   E      C#
Good Morning 

F#   E     C#
Good Morning 

F#   E      C#
Good Morning 

   D                          E                       D
so put a smile upon your face being alive is no disgrace 

C#                                                  B    A      
you can make it a better place by havin' yourself a good morning

Outro

Play twice
F#/E F# F#/E F# F#/E F# A

F#/E F# F#/E F# F#/E F# B

F#/E F# F#/E F# F#/E F# D

F#/E F# F#/E F# E A

Break down

E B A D C G F Bb E

E B A D C G F Bb E





Comments


Popular Blackfoot tabs & chords
Baby Blue Tabs
Diary Of A Working Man Tabs
Dry County Tabs
Every Man Should Know Queenie 1 Tabs
Highway Song Tabs
Reckless Abandoner Tabs
Road Fever Tabs
Searchin Tabs
Too Hard To Handle Tabs
Train Train 1 Tabs


Song lyrics



↑ Back to top | Tablatures and chords are parodies/interpretations of the original songs. You may use it for private study, scholarship, research or language learning purposes only
© 2014 AZChords.com Contact us | Privacy policy | DMCA | Add/correct tabs | Request tabs | Top 50 tabs