>
 >
Fox Chase

Fox Chase Guitar Tabs

Blackfoot - Fox Chase chords, tabs, tablatures, lyrics

Guitar lessons | Add/correct | Request | Top 50 tabs Artists:  A B C D E F G H I J K L M N O P Q R S T U V W X Y Z 0-9

Fox Chase Guitar Tabs – Blackfoot

CD, Sheet music, Poster

Do you like Fox Chase? Share with your friends now
Tabs
1. 			                        Fox Chase- Blackfoot
2.                             Tomcattin'-1980
3.       Words and Music by Shorty Medlocke,Rick Medlocke & Jakson Spires

Tuning: Drop D (DADGBE)

Guitar I

Intro
e|----------------------------------|----------------------------------|
B|----------------------------------|----------------------------------|
G|----------------------------------|----------------------------------|
D|-----7-----7--7-----7----------7--|-----7-----7--7-----7----------7--|
A|-----5-----5--5-----5-------7-----|-----5-----5--5-----5-------7-----|
E|--0-----0--------0-----0h5--------|--0-----0--------0-----0h5--------|

e|----------------------------------|------------------------------|
B|----------------------------------|------------------------------|
G|----------------------------------|------------------------------|
D|-----7-----7--7-----7----------7--|-----7-----7--7-----7---------|
A|-----5-----5--5-----5-------7-----|-----5-----5--5-----5---5\3---|
E|--0-----0--------0-----0h5--------|--0-----0--------0------5\3---|

1st Verse
e|----------------------------------|----------------------------------|
B|----------------------------------|----------------------------------|
G|----------------------------------|----------------------------------|
D|-----7-----7--7-----7----------7--|-----7-----7--7-----7----------7--|
A|-----5-----5--5-----5-------7-----|-----5-----5--5-----5-------7-----|
E|--0-----0--------0-----0h5--------|--0-----0--------0-----0h5--------|

e|----------------------------------|----------------------------------|
B|----------------------------------|----------------------------------|
G|----------------------------------|----------------------------------|
D|-----7-----7--7-----7----------7--|-----7-----7--7-----7----------7--|
A|-----5-----5--5-----5-------7-----|-----5-----5--5-----5-------7-----|
E|--0-----0--------0-----0h5--------|--0-----0--------0-----0h5--------|

e|-------------------------|-----------------------------------|
B|-------------------------|-----------------------------------|
G|-------------------------|-----------------------------------|
D|-------------------------|-----------------------3--2--0-----|
A|--5--8--8--5--8--5/8--8--|--5--8--8--5--5--0--1--------------|
E|--5--8--8--5--8--5/8--8--|--5--8--8--5--5-----------------3--|

e|----------------------------------|----------------------------------|
B|----------------------------------|----------------------------------|
G|----------------------------------|----------------------------------|
D|-----7-----7--7-----7----------7--|-----7-----7--7-----7----------7--|
A|-----5-----5--5-----5-------7-----|-----5-----5--5-----5-------7-----|
E|--0-----0--------0-----0h5--------|--0-----0--------0-----0h5--------|

Chorus
e|---------------------------|----------------------|
B|---------------------------|----------------------|
G|---------------------------|----------------------|
D|--7--10--10--7--10--10--7--|--2--2--2--4--5--7----|
A|--7--10--10--7--10--10--7--|--2--2--2--4--5--7----|
E|--7--10--10--7--10--10--7--|--2--2--2--4--5--7----|

e|----------------------------------|------------------------------|
B|----------------------------------|------------------------------|
G|----------------------------------|------------------------------|
D|-----7-----7--7-----7----------7--|-----7-----7--7-----7---------|
A|-----5-----5--5-----5-------7-----|-----5-----5--5-----5---5\3---|
E|--0-----0--------0-----0h5--------|--0-----0--------0------5\3---|

2nd Verse
e|----------------------------------|----------------------------------|
B|----------------------------------|----------------------------------|
G|----------------------------------|----------------------------------|
D|-----7-----7--7-----7----------7--|-----7-----7--7-----7----------7--|
A|-----5-----5--5-----5-------7-----|-----5-----5--5-----5-------7-----|
E|--0-----0--------0-----0h5--------|--0-----0--------0-----0h5--------|

e|----------------------------------|----------------------------------|
B|----------------------------------|----------------------------------|
G|----------------------------------|----------------------------------|
D|-----7-----7--7-----7----------7--|-----7-----7--7-----7----------7--|
A|-----5-----5--5-----5-------7-----|-----5-----5--5-----5-------7-----|
E|--0-----0--------0-----0h5--------|--0-----0--------0-----0h5--------|

e|-------------------------|-----------------------------------|
B|-------------------------|-----------------------------------|
G|-------------------------|-----------------------------------|
D|-------------------------|-----------------------3--2--0-----|
A|--5--8--8--5--8--5/8--8--|--5--8--8--5--5--0--1--------------|
E|--5--8--8--5--8--5/8--8--|--5--8--8--5--5-----------------3--|

e|----------------------------------|----------------------------------|
B|----------------------------------|----------------------------------|
G|----------------------------------|----------------------------------|
D|-----7-----7--7-----7----------7--|-----7-----7--7-----7----------7--|
A|-----5-----5--5-----5-------7-----|-----5-----5--5-----5-------7-----|
E|--0-----0--------0-----0h5--------|--0-----0--------0-----0h5--------|

2nd Chorus
e|---------------------------|----------------------|
B|---------------------------|----------------------|
G|---------------------------|----------------------|
D|--7--10--10--7--10--10--7--|--2--2--2--4--5--7----|
A|--7--10--10--7--10--10--7--|--2--2--2--4--5--7----|
E|--7--10--10--7--10--10--7--|--2--2--2--4--5--7----|

e|----------------------------------|------------------------------|
B|----------------------------------|------------------------------|
G|----------------------------------|------------------------------|
D|-----7-----7--7-----7----------7--|-----7-----7--7-----7---------|
A|-----5-----5--5-----5-------7-----|-----5-----5--5-----5---5\3---|
E|--0-----0--------0-----0h5--------|--0-----0--------0------5\3---|

1st Solo
e|---------------------------------|---------------------------------|
B|---------------------------------|---------------------------------|
G|---------------------------------|---------------------------------|
D|---------------------------------|---------------------------------|
A|--7--10--10--7-----10--7/10--10--|--7--10--10--7-----10--7/10--10--|
E|--7--10--10--7--0--10--7/10--10--|--7--10--10--7--0--10--7/10--10--|

e|---------------------------------|---------------------------------|
B|---------------------------------|---------------------------------|
G|---------------------------------|---------------------------------|
D|---------------------------------|---------------------------------|
A|--7--10--10--7-----10--7/10--10--|--7--10--10--7-----10--7/10--10--|
E|--7--10--10--7--0--10--7/10--10--|--7--10--10--7--0--10--7/10--10--|

e|----------------------------|----------------------------|
B|----------------------------|----------------------------|
G|----------------------------|----------------------------|
D|----------------------------|----------------------------|
A|--5--8--8--5-----8--5/8--8--|--5--8--8--5-----8--5/8--8--|
E|--5--8--8--5--0--8--5/8--8--|--5--8--8--5-----8--5/8--8--|

e|---------------------------------|---------------------------------|
B|---------------------------------|---------------------------------|
G|---------------------------------|---------------------------------|
D|---------------------------------|---------------------------------|
A|--7--10--10--7-----10--7/10--10--|--7--10--10--7-----10--7/10--10--|
E|--7--10--10--7--0--10--7/10--10--|--7--10--10--7--0--10--7/10--10--|

e|------------------------------------|
B|------------------------------------|
G|------------------------------------|
D|--2--2--2--2--2--2--2--4--5--5--7---|
A|--2--2--2--2--2--2--2--4--5--5--7---|
E|--2--2--2--2--2--2--2--4--5--5--7---|

e|----------------------------------|------------------------------|
B|----------------------------------|------------------------------|
G|----------------------------------|------------------------------|
D|-----7-----7--7-----7----------7--|-----7-----7--7-----7---------|
A|-----5-----5--5-----5-------7-----|-----5-----5--5-----5---5\3---|
E|--0-----0--------0-----0h5--------|--0-----0--------0------5\3---|

3rd Verse
e|----------------------------------|----------------------------------|
B|----------------------------------|----------------------------------|
G|----------------------------------|----------------------------------|
D|-----7-----7--7-----7----------7--|-----7-----7--7-----7----------7--|
A|-----5-----5--5-----5-------7-----|-----5-----5--5-----5-------7-----|
E|--0-----0--------0-----0h5--------|--0-----0--------0-----0h5--------|

e|----------------------------------|----------------------------------|
B|----------------------------------|----------------------------------|
G|----------------------------------|----------------------------------|
D|-----7-----7--7-----7----------7--|-----7-----7--7-----7----------7--|
A|-----5-----5--5-----5-------7-----|-----5-----5--5-----5-------7-----|
E|--0-----0--------0-----0h5--------|--0-----0--------0-----0h5--------|

e|-------------------------|-----------------------------------|
B|-------------------------|-----------------------------------|
G|-------------------------|-----------------------------------|
D|-------------------------|-----------------------3--2--0-----|
A|--5--8--8--5--8--5/8--8--|--5--8--8--5--5--0--1--------------|
E|--5--8--8--5--8--5/8--8--|--5--8--8--5--5-----------------3--|

e|----------------------------------|----------------------------------|
B|----------------------------------|----------------------------------|
G|----------------------------------|----------------------------------|
D|-----7-----7--7-----7----------7--|-----7-----7--7-----7----------7--|
A|-----5-----5--5-----5-------7-----|-----5-----5--5-----5-------7-----|
E|--0-----0--------0-----0h5--------|--0-----0--------0-----0h5--------|

3rd Chorus
e|---------------------------|----------------------|
B|---------------------------|----------------------|
G|---------------------------|----------------------|
D|--7--10--10--7--10--10--7--|--2--2--2--4--5--7----|
A|--7--10--10--7--10--10--7--|--2--2--2--4--5--7----|
E|--7--10--10--7--10--10--7--|--2--2--2--4--5--7----|

e|----------------------------------|------------------------------|
B|----------------------------------|------------------------------|
G|----------------------------------|------------------------------|
D|-----7-----7--7-----7----------7--|-----7-----7--7-----7---------|
A|-----5-----5--5-----5-------7-----|-----5-----5--5-----5---5\3---|
E|--0-----0--------0-----0h5--------|--0-----0--------0------5\3---|

2nd Solo
e|---------------------------------|---------------------------------|
B|---------------------------------|---------------------------------|
G|---------------------------------|---------------------------------|
D|---------------------------------|---------------------------------|
A|--7--10--10--7-----10--7/10--10--|--7--10--10--7-----10--7/10--10--|
E|--7--10--10--7--0--10--7/10--10--|--7--10--10--7--0--10--7/10--10--|

e|---------------------------------|---------------------------------|
B|---------------------------------|---------------------------------|
G|---------------------------------|---------------------------------|
D|---------------------------------|---------------------------------|
A|--7--10--10--7-----10--7/10--10--|--7--10--10--7-----10--7/10--10--|
E|--7--10--10--7--0--10--7/10--10--|--7--10--10--7--0--10--7/10--10--|

e|----------------------------|----------------------------|
B|----------------------------|----------------------------|
G|----------------------------|----------------------------|
D|----------------------------|----------------------------|
A|--5--8--8--5-----8--5/8--8--|--5--8--8--5-----8--5/8--8--|
E|--5--8--8--5--0--8--5/8--8--|--5--8--8--5-----8--5/8--8--|

Play this section through Fade out
e|---------------------------------|---------------------------------|
B|---------------------------------|---------------------------------|
G|---------------------------------|---------------------------------|
D|---------------------------------|---------------------------------|
A|--7--10--10--7-----10--7/10--10--|--7--10--10--7-----10--7/10--10--|
E|--7--10--10--7--0--10--7/10--10--|--7--10--10--7--0--10--7/10--10--|

e|----------------------------|----------------------------|
B|----------------------------|----------------------------|
G|----------------------------|----------------------------|
D|----------------------------|----------------------------|
A|--5--8--8--5-----8--5/8--8--|--5--8--8--5-----8--5/8--8--|
E|--5--8--8--5--0--8--5/8--8--|--5--8--8--5-----8--5/8--8--|

Guitar II
Intro (two bars after guitar I)
e|-----2-----2--2-----------------------------|-----2--2------2------------|
B|-----3-----3--3-----------------------------|-----3--3------3------------|
G|-----2-----2--2-----5--4--2-------2--4--2---|-----2--2------2------------|
D|--0--0--0--0--0--0-----------2h3------------|--0--0--0--0---0------------|
A|--------------------------------------------|--------------------5--3----|
E|--------------------------------------------|--------------------5--3----|

1st Verse
e|----2---2-2--------------------------|----2---2-2--------------------------|
B|----3---3-3--------------------------|----3---3-3--------------------------|
G|----2---2-2----5--4--2-------2--4--2-|----2---2-2----5--4--2-------2--4--2-|
D|-0--0-0-0-0-0-----------2h3----------|-0--0-0-0-0-0-----------2h3----------|
A|-------------------------------------|-------------------------------------|
E|-------------------------------------|-------------------------------------|


e|----2---2-2--------------------------|----2---2-2--------------------------|
B|----3---3-3--------------------------|----3---3-3--------------------------|
G|----2---2-2----5--4--2-------2--4--2-|----2---2-2----5--4--2-------2--4--2-|
D|-0--0-0-0-0-0-----------2h3----------|-0--0-0-0-0-0-----------2h3----------|
A|-------------------------------------|-------------------------------------|
E|-------------------------------------|-------------------------------------|

e|-------------------------|-----------------------------------|
B|-------------------------|-----------------------------------|
G|-------------------------|-----------------------------------|
D|-------------------------|-----------------------3--2--0-----|
A|--5--5--5--5--5--5/8--8--|--5--5--5--5--5--0--1-----------3--|
E|--5--5--5--5--5--5/8--8--|--5--5--5--5--5--------------------|

e|-----2-----2--2----|----2-----2--2---------------------------|
B|-----3-----3--3----|----3-----3--3---------------------------|
G|-----2-----2--2----|----2-----2--2-----5--4--2-------2--4--2-|
D|--0--0--0--0--0----|-0--0--0--0--0--0-----------2h3----------|
A|-------------------|-----------------------------------------|
E|-------------------|-----------------------------------------|

Chorus
e|-----------------------|--------------------|
B|-----5--5-----5--5-----|--------------------|
G|--2--5--5--2--5--5--2--|--------------------|
D|--2--5--5--2--5--5--2--|--2--2--2--4--5--7--|
A|--0--------0--------0--|--2--2--2--4--5--7--|
E|-----------------------|--2--2--2--4--5--7--|

e|-----2-----2--2-----------------------------|-----2--2------2------------|
B|-----3-----3--3-----------------------------|-----3--3------3------------|
G|-----2-----2--2-----5--4--2-------2--4--2---|-----2--2------2------------|
D|--0--0--0--0--0--0-----------2h3------------|--0--0--0--0---0------------|
A|--------------------------------------------|--------------------5--3----|
E|--------------------------------------------|--------------------5--3----|

2nd Verse
e|----2---2-2--------------------------|----2---2-2--------------------------|
B|----3---3-3--------------------------|----3---3-3--------------------------|
G|----2---2-2----5--4--2-------2--4--2-|----2---2-2----5--4--2-------2--4--2-|
D|-0--0-0-0-0-0-----------2h3----------|-0--0-0-0-0-0-----------2h3----------|
A|-------------------------------------|-------------------------------------|
E|-------------------------------------|-------------------------------------|

e|----2---2-2--------------------------|-----------------------------------|
B|----3---3-3--------------------------|--3--------------------------------|
G|----2---2-2----5--4--2-------2--4--2-|-----0--5--4--2----------2---------|
D|-0--0-0-0-0-0-----------2h3----------|-----------------0--3h4-----3--0---|
A|-------------------------------------|-----------------------------------|
E|-------------------------------------|-----------------------------------|


e|-------------------------|-----------------------------------|
B|-------------------------|-----------------------------------|
G|-------------------------|-----------------------------------|
D|-------------------------|-----------------------3--2--0-----|
A|--5--5--5--5--5--5/8--8--|--5--5--5--5--5--0--1-----------3--|
E|--5--5--5--5--5--5/8--8--|--5--5--5--5--5--------------------|

e|-----2-----2--2----|----2-----2--2---------------------------|
B|-----3-----3--3----|----3-----3--3---------------------------|
G|-----2-----2--2----|----2-----2--2-----5--4--2-------2--4--2-|
D|--0--0--0--0--0----|-0--0--0--0--0--0-----------2h3----------|
A|-------------------|-----------------------------------------|
E|-------------------|-----------------------------------------|

 2nd Chorus
e|-----------------------|--------------------|
B|-----5--5-----5--5-----|--------------------|
G|--2--5--5--2--5--5--2--|--------------------|
D|--2--5--5--2--5--5--2--|--2--2--2--4--5--7--|
A|--0--------0--------0--|--2--2--2--4--5--7--|
E|-----------------------|--2--2--2--4--5--7--|

e|-----2-----2--2-----------------------------|-----2--2------2------------|
B|-----3-----3--3-----------------------------|-----3--3------3------------|
G|-----2-----2--2-----5--4--2-------2--4--2---|-----2--2------2------------|
D|--0--0--0--0--0--0-----------2h3------------|--0--0--0--0---0------------|
A|--------------------------------------------|--------------------5--3----|
E|--------------------------------------------|--------------------5--3----|

1st Solo
e|---------------------------------|---------------------------------|
B|---------------------------------|---------------------------------|
G|---------------------------------|---------------------------------|
D|---------------------------------|---------------------------------|
A|--7--10--10--7-----10--7/10--10--|--7--10--10--7-----10--7/10--10--|
E|--7--10--10--7--0--10--7/10--10--|--7--10--10--7--0--10--7/10--10--|

e|---------------------------------|---------------------------------|
B|---------------------------------|---------------------------------|
G|---------------------------------|---------------------------------|
D|---------------------------------|---------------------------------|
A|--7--10--10--7-----10--7/10--10--|--7--10--10--7-----10--7/10--10--|
E|--7--10--10--7--0--10--7/10--10--|--7--10--10--7--0--10--7/10--10--|

e|----------------------------|----------------------------|
B|----------------------------|----------------------------|
G|----------------------------|----------------------------|
D|----------------------------|----------------------------|
A|--5--8--8--5-----8--5/8--8--|--5--8--8--5-----8--5/8--8--|
E|--5--8--8--5--0--8--5/8--8--|--5--8--8--5-----8--5/8--8--|

e|---------------------------------|---------------------------------|
B|---------------------------------|---------------------------------|
G|---------------------------------|---------------------------------|
D|---------------------------------|---------------------------------|
A|--7--10--10--7-----10--7/10--10--|--7--10--10--7-----10--7/10--10--|
E|--7--10--10--7--0--10--7/10--10--|--7--10--10--7--0--10--7/10--10--|

e|------------------------------------|
B|------------------------------------|
G|------------------------------------|
D|--2--2--2--2--2--2--2--4--5--5--7---|
A|--2--2--2--2--2--2--2--4--5--5--7---|
E|--2--2--2--2--2--2--2--4--5--5--7---|

e|----2---2-2--------------------------|------------------------|
B|----3---3-3--------------------------|--3---------------------|
G|----2---2-2----5--4--2-------2--4--2-|-----2--5--4------------|
D|-0--0-0-0-0-0-----------2h3----------|--------------3---------|
A|-------------------------------------|-----------------5--3---|
E|-------------------------------------|-----------------5--3---|

3rd Verse
e|----2---2-2--------------------------|----2---2-2-------------------------|
B|----3---3-3--------------------------|----3---3-3-------------------------|
G|----2---2-2----5--4--2-------2--4--2-|----2---2-2----5--4--2-------2--4p+-|
D|-0--0-0-0-0-0-----------2h3----------|-0--0-0-0-0-0-----------2h3---------|
A|-------------------------------------|------------------------------------|
E|-------------------------------------|------------------------------------|

e|----2---2-2--------------------------|----2---2-2--------------------------|
B|----3---3-3--------------------------|----3---3-3--------------------------|
G|----2---2-2----5--4--2-------2--4--2-|----2---2-2----5--4--2-------2--4--2-|
D|-0--0-0-0-0-0-----------2h3----------|-0--0-0-0-0-0-----------2h3----------|
A|-------------------------------------|-------------------------------------|
E|-------------------------------------|-------------------------------------|

e|-------------------------|-----------------------------------|
B|-------------------------|-----------------------------------|
G|-------------------------|-----------------------------------|
D|-------------------------|-----------------------3--2--0-----|
A|--5--5--5--5--5--5/8--8--|--5--5--5--5--5--0--1-----------3--|
E|--5--5--5--5--5--5/8--8--|--5--5--5--5--5--------------------|

e|-----2-----2--2----|----2-----2--2---------------------------|
B|-----3-----3--3----|----3-----3--3---------------------------|
G|-----2-----2--2----|----2-----2--2-----5--4--2-------2--4--2-|
D|--0--0--0--0--0----|-0--0--0--0--0--0-----------2h3----------|
A|-------------------|-----------------------------------------|
E|-------------------|-----------------------------------------|

 3rd Chorus
e|-----------------------|--------------------|
B|-----5--5-----5--5-----|--------------------|
G|--2--5--5--2--5--5--2--|--------------------|
D|--2--5--5--2--5--5--2--|--2--2--2--4--5--7--|
A|--0--------0--------0--|--2--2--2--4--5--7--|
E|-----------------------|--2--2--2--4--5--7--|

e|-----2-----2--2-----------------------------|-----2--2------2------------|
B|-----3-----3--3-----------------------------|-----3--3------3------------|
G|-----2-----2--2-----5--4--2-------2--4--2---|-----2--2------2------------|
D|--0--0--0--0--0--0-----------2h3------------|--0--0--0--0---0------------|
A|--------------------------------------------|--------------------5--3----|
E|--------------------------------------------|--------------------5--3----|

2nd Solo
e|---------------------------------|---------------------------------|
B|---------------------------------|---------------------------------|
G|---------------------------------|---------------------------------|
D|---------------------------------|---------------------------------|
A|--7--10--10--7-----10--7/10--10--|--7--10--10--7-----10--7/10--10--|
E|--7--10--10--7--0--10--7/10--10--|--7--10--10--7--0--10--7/10--10--|

e|---------------------------------|---------------------------------|
B|---------------------------------|---------------------------------|
G|---------------------------------|---------------------------------|
D|---------------------------------|---------------------------------|
A|--7--10--10--7-----10--7/10--10--|--7--10--10--7-----10--7/10--10--|
E|--7--10--10--7--0--10--7/10--10--|--7--10--10--7--0--10--7/10--10--|

e|----------------------------|----------------------------|
B|----------------------------|----------------------------|
G|----------------------------|----------------------------|
D|----------------------------|----------------------------|
A|--5--8--8--5-----8--5/8--8--|--5--8--8--5-----8--5/8--8--|
E|--5--8--8--5--0--8--5/8--8--|--5--8--8--5-----8--5/8--8--|

Play this section through Fade out
e|---------------------------------|---------------------------------|
B|---------------------------------|---------------------------------|
G|---------------------------------|---------------------------------|
D|---------------------------------|---------------------------------|
A|--7--10--10--7-----10--7/10--10--|--7--10--10--7-----10--7/10--10--|
E|--7--10--10--7--0--10--7/10--10--|--7--10--10--7--0--10--7/10--10--|

e|----------------------------|----------------------------|
B|----------------------------|----------------------------|
G|----------------------------|----------------------------|
D|----------------------------|----------------------------|
A|--5--8--8--5-----8--5/8--8--|--5--8--8--5-----8--5/8--8--|
E|--5--8--8--5--0--8--5/8--8--|--5--8--8--5-----8--5/8--8--|

1st and 3rd Fill
e|--8--8--7/8-----8--8--7/--8----|
B|--8--8--7/8-----8--8--7/--8----|
G|--5--5----5-----5--5------5----|
D|-------------------------------|
A|-------------------------------|
E|-------------------------------|

2nd  Fill
e|----------------------------------------------------------------------|
B|--13h15~~--13------13h15~~--13----------------------------------------|
G|---------------14----------------14--12br--10------12------10---------|
D|-----------------------------------------------12------12------12-----|
A|----------------------------------------------------------------------|
E|----------------------------------------------------------------------|

Main Solo
e|------10--10--13brbr--13-10------------------------------------------------|
B|--13-------------------------13---13----13----13----13-----13--------------|
G|-----------------------------12b--12pb--12pb--12pb--12pbr--10--12--10------|
D|-----------------------------------------------------------------------12--|
A|---------------------------------------------------------------------------|
E|---------------------------------------------------------------------------|

e|-----------------------------5-----8--5-----5----------------------------|
B|--------------------------5-----5--------8-----8b--6/8--8--8--8----------|
G|--7b--7b--5--------5--7b---------------------------7/9--9--9--9--9\7--5--|
D|-------------7--7--------------------------------------------------------|
A|-------------------------------------------------------------------------|
E|-------------------------------------------------------------------------|

e|--------------------------------------------------1/3--3--3--3--3--3--3--|
B|--------------------------------------------------1/3--3--3--3--3--3--3--|
G|--7--5-----7b+--7b+--7b+--7br+--5-----7-----5----------------------------|
D|--------7--------------------------7-----7-----7-------------------------|
A|-------------------------------------------------------------------------|
E|-------------------------------------------------------------------------|

e|-------------------------------------------5------------------------------|
B|-------------3--------3--------6/8------5-----8b--8pbr--5-----------------|
G|--5br--3-----3--------3-----3-------7b---------------------8--7--5-----7--|
D|----------5-----3--5-----5------------------------------------------7-----|
A|--------------------------------------------------------------------------|
E|--------------------------------------------------------------------------|

e|---------------5--8br--5-----5------------------------------|
B|------------5-------------5-----8/10------------------------|
G|-----5--7b-----------------------------------2b--2--0--2+---|
D|--7---------------------------------------------------------|
A|------------------------------------------------------------|
E|------------------------------------------------------------|

4th Fill
e|--8--8--8--8--7/8-----8--8--8/7--8---|
B|--8--8--8--8--7/8-----8--8--8/7--8---|
G|--5--5--5--5----5-----5--5--5----5---|
D|-------------------------------------|
A|-------------------------------------|
E|-------------------------------------|

5th Fill
e|-------------------------------13b--13b--13pbr--10--10------10-10--------10|
B|--13--10--13b--13b--13pbr--10---------------------------13---------13-10---|
G|---------------------------------------------------------------------------|
D|---------------------------------------------------------------------------|
A|---------------------------------------------------------------------------|
E|---------------------------------------------------------------------------|

Outro solo
e|--------------------------------------15-------15----------------------------|
B|--15b--15b--13---------------13--15b------15b------15pbr--13-----------------|
G|----------------14~~--10/14-----------------------------------14~~--10/14----|
D|-----------------------------------------------------------------------------|
A|-----------------------------------------------------------------------------|
E|-----------------------------------------------------------------------------|


e|-----------15-------15-------15-------15------------15b--15pbr--12-------|
B|--13--15b------15b------15b------15b------15br--13------------------15b--|
G|-------------------------------------------------------------------------|
D|-------------------------------------------------------------------------|
A|-------------------------------------------------------------------------|
E|-------------------------------------------------------------------------|

                              Tap with side of pick over fret
e|---------------------------------------------------------------------------|
B|--15pbr--13----------------------------------------------------------------|
G|-------------14---------15--17b-22t-22t-22t-22t-22t-22t-22t-22t-22t-22t-22t|
D|-----------------14/17-----------------------------------------------------|
A|---------------------------------------------------------------------------|
E|---------------------------------------------------------------------------|

e|------------------------5--------------------------------------------------|
B|---------------------5-----8b--8pbr-5--------------------------------------|
G|--17pbr--15------5b--------------------8--7--5-----7+-----5+--7b+--7+--5+--|
D|-------------17---------------------------------7------7-------------------|
A|---------------------------------------------------------------------------|
E|---------------------------------------------------------------------------|

e|-------------------------------------------------------------------------|
B|-------------------------------------------------------------------------|
G|--7b+--7+--5+------3--0--3-----3--0--3--5--3-----3--0--3--0--3--0--3--0--|
D|---------------7+--3--0--3--5--3--0--3--------5--3--0--3--0--3--0--3--0--|
A|----------------------------5--------------------------------------------|
E|-------------------------------------------------------------------------|

e|------------------------------------------------------------------------------|
B|------------------------------------------------------------------------------|
G|--3--0-------5-----7-----5-----7-----5-----7pbr--5--7br+--7+--5+--7br+--7+----|
D|--3--0--5/7-----7-----7-----7-----7-----7-------------------------------------|
A|------------------------------------------------------------------------------|
E|------------------------------------------------------------------------------|

                                                        P.M-------------------|
e|----------------------------------------------------------------------------|
B|----------------------------------------------------------------------------|
G|--5+-----(0)h3--5b--5b+--3--------------------------------------------------|
D|------7---------------------5--5--3--5--3-----------------------------------|
A|-------------------------------------------5--4--3--1---------3-----5-------|
E|-------------------------------------------------------5~~~-----5-----5-----|

e|-------------------------------------5--------------------------------------|
B|----------------------------------5---------------11----------11------11----|
G|--------------5-----7--5------7b--------7br-5---------12~~~------12---------|
D|-----------------7--------7--------------------7----------------------------|
A|--3-----5-------------------------------------------------------------------|
E|-----5-----5----------------------------------------------------------------|

e|---------------------------------------------------------------------------|
B|--13b--13pbr--11--13b--13pbr--11------11-----------------------------------|
G|----------------------------------12------14~~~--12--14br+--12+--14+--14+--|
D|---------------------------------------------------------------------------|
A|---------------------------------------------------------------------------|
E|---------------------------------------------------------------------------|


e|---------------------------------------------------------------------------|
B|---------------------------------------------------------------------------|
G|--12+--14+--12+------------------------------5b--5b+--5pb+--5pb+--5pb+-5pb+|
D|------------------14+--13+--12+--10+---------------------------------------|
A|---------------------------------------12+---------------------------------|
E|---------------------------------------------------------------------------|

e|---------------------------------------5------------------8p5-----5--8br---|
B|------------------------------------5-----5--8b--8pbr--5-------8-----------|
G|--5pbr+--3----------5--7-----5--7b-----------------------------------------|
D|------------5--5/7--------7------------------------------------------------|
A|---------------------------------------------------------------------------|
E|---------------------------------------------------------------------------|

e|--5-----5--5-----------------13-------13-----------------------------13br--|
B|-----5--------------11--13b------13b------13pbr--13------13------11--------|
G|--------------9/12-----------------------------------12------12------------|
D|---------------------------------------------------------------------------|
A|---------------------------------------------------------------------------|
E|---------------------------------------------------------------------------|

                             Beginning of fade out
e|--10--------------------------------------------15-------15-------------|
B|------13br--11--13------11---------13--13--15b------15b------15br--13---|
G|--------------------12------12/14---------------------------------------|
D|------------------------------------------------------------------------|
A|------------------------------------------------------------------------|
E|------------------------------------------------------------------------|


e|--15b--15pb--15pb--15b--15pb--15pb--15b--15pb--15pb--15b--15pb--15pb--15b--|
B|---------------------------------------------------------------------------|
G|---------------------------------------------------------------------------|
D|---------------------------------------------------------------------------|
A|---------------------------------------------------------------------------|
E|---------------------------------------------------------------------------|

e|------15--13-----13--15--13------13------13--15--13------13--15--13-------|
B|--15---------15--------------15------15--------------15--------------15---|
G|--------------------------------------------------------------------------|
D|--------------------------------------------------------------------------|
A|--------------------------------------------------------------------------|
E|--------------------------------------------------------------------------|

e|--13--15-------------15b--15b--17------------------------------------------|
B|-----------------13----------------15br--13--15------13--15br--13------15--|
G|----------12/14----------------------------------14----------------14------|
D|---------------------------------------------------------------------------|
A|---------------------------------------------------------------------------|
E|---------------------------------------------------------------------------|

e|-----------------------------------------------------------------------------|
B|------13----------3--6b--6pbr--3--6pbr--3--6b------6------6------------------|
G|--14------14--5b-------------------------------5b-----5b-----5pbr--5--3--5---|
D|-----------------------------------------------------------------------------|
A|-----------------------------------------------------------------------------|
E|-----------------------------------------------------------------------------|
e|-----------------------------------------------------------------------------|
B|-----------------------------------------------------------------------------|
G|-----3--0--2--2--0--2br--0--2--2b+--2b+--2b+--2b+--2b+--2br+--0--2-----------|
D|--5-----------------------------------------------------------------3--5-----|
A|-----------------------------------------------------------------------------|
E|-----------------------------------------------------------------------------|

e|-------------------------------------------|
B|-------------------------------------------|
G|--------5b+--5br---------------------------|
D|--3--5------------3--5--5--3---------------|
A|------------------------------5--3--1------|
E|---------------------------------------5---|

************************************
| /   slide up
| \   slide down
| h   hammer-on
| p   pull-off
| ~   vibrato
| +   Pinch harmonic
| x   Mute note
| b   Bend
| pb  Pre-bend
| br  Bend release
| pbr Pre-bend release
| brb Bend release bend
| P.M. Palm Mute

***********************************


Intro

N.C

Howdy folks, this is your ol' buddy Shorty Medlocke, I'd like to tell ya about an ol' 
bunch of fox hounds I got;ol' Ring, ol' Tag, and ol' Rover. And when we start out across 
them Georgia hills a huntin them foxes sounds something like this

Harmonica break
Assorted howls Get'em, sic'em, chase'em, get'em Ring

Band kicks in

D  N.C.  D   N.C.
         ah take a look now

D   N.C  D  G  F

1st Verse
D                N.C
Well I got in my pick-up

D               N. C
at a quater to four

       D                     N.C
had my snake skins on and my black stetson and I

D               N.C
I was ready to stroll

      G                    A#
and I called Doctor Jakson

G                  N.C,              D      N.C
said to my friend  oh do you want to go

D                     N.C
you know he ain't too slow

1st chorus

         A   C   A     C    A     E                F# G    A D     N.C
We'll be out doin' the fox chase just like so many times before

D   N.C.  G   F
2nd Verse

  D                  N.C.
I called up pastor T to come and see

D                           N.C.
Charlie says we're right on time

         D                    N.C.           D                          N.C.
we'll be drinkin' Jack Blacks one on one and maybe just a little bit of wine

G                      A#   G              N.C.             D    N.C.
we gotta hunt up miss Lucy bringing my gun she's already to go

D                        N.C.
baby baby aint too slow

2nd Chorus

         A   C   A     C    A     E            F# G       A D     N.C
We'll be out doin' the fox chase just like so many times before

D G F

Solo

A   C   A   C   A   C
A   C   A   C   A   C
A   C   A   C   A   C
A   C   A   C   A   C
G   A#  G   A#  G   A
G   A#  G   A#  G   A
A   C   A   C   A   C
A   C   A   C   A   C

E   F#   G   A   D   N.C.   D   G   F
                                oo oo whoo


3rd Verse

D                N.C.
Free as a breeze do what we please

D                      N.C.
without a care in the world

D                    N.C
just a dollar of gas want to get a road map

D                 N.C.
lookin' for that girl

G                                  A#
well now some-body call the doctor

G                N.C.
sick on my knees don't think I'll be able to

D    N.C.
go

D                      N.C.
but then again I don't know

         A   C   A     C    A     E            F# G       A D     N.C
I'll be out doin' the fox chase just like so many times before

D    G    F
oh yeah chase them foxes

Outro

A   C   A   C   A   C
A   C   A   C   A   C
A   C   A   C   A   C
A   C   A   C   A   C
G   A#  G   A#  G   A
G   A#  G   A#  G   A

Repeat this section till fade out
A   C   A   C   A   C
A   C   A   C   A   C
G   A#  G   A#  G   A
G   A#  G   A#  G   A





Comments


Popular Blackfoot tabs & chords
Dancin Man Tabs
Dream On Tabs
Fire Of The Dragon Tabs
Highway Song Tabs
Highway Song 2 Tabs
Left Turn On A Red Light Tabs
Not Another Maker Tabs
Stars Tabs
Street Fighter Tabs
Train Train 2 Tabs


Song lyrics



↑ Back to top | Tablatures and chords are parodies/interpretations of the original songs. You may use it for private study, scholarship, research or language learning purposes only
© 2014 AZChords.com Contact us | Privacy policy | DMCA | Add/correct tabs | Request tabs | Top 50 tabs