>
 >
Dry County

Dry County Guitar Tabs

Blackfoot - Dry County chords, tabs, tablatures, lyrics

Guitar lessons | Add/correct | Request | Top 50 tabs Artists:  A B C D E F G H I J K L M N O P Q R S T U V W X Y Z 0-9

Dry County Guitar Tabs – Blackfoot

CD, Sheet music, Poster

Do you like Dry County? Share with your friends now
Tabs
                               Dry County- Blackfoot
2.                               Marauder-1981
3.            Words and Music by Rick Medlocke and Jakson Spieres


Tuning:Standard

Guitar I

Intro
e|-----------------------------|------------------------|-----------------|
B|-----------------------------|------------------------|-----------------|
G|--7--9--9--9--9--9--9--9--9--|--9----------0-----7/9--|---------------0-|
D|--7--9--9--9--9--9--9--9--9--|--9----------0--2--7/9--|-----------------|
A|--5--7--7--7--7--7--7--7--7--|--7--5\4--2-----0--5/7--|-----------------|
E|--------0--0--0--0--0--0--0--|--0--3\2--0-------------|--0---0\----- /--|
                                                                 \    /
                                                                  \  / 
                                                                   \/

e|------------------------------------------------------|--------------------|
B|------------------------------------------------------|--------------------|
G|--2b-----------2pbp+--2pbp+--2pbp+--2pbp+--2pbrp+--0--|--------------------|  
D|----\-------------------------------------------------|--2--0--2---------2-|
A|-----\------------------------------------------------|--------------------|
E|------\/\/\/\/\---------------------------------------|----------3--0--3---|

               1st Verse
e|------------|--------|---------------|-----------------------|
B|------------|--------|---------------|--8/10--10--10--10--9--|
G|------------|--------|-------0-------|--7/9---9---9---9---9--|
D|------------|--2-----|--9----0----7--|-----------------------|
A|------------|--2-----|--9---------7--|-----------------------|
E|--0-----/---|--0-----|--7---------5--|-----------------------|
    \    /
     \  /
      \/

e|--------------------|--------|---------------|--------------------------|
B|--8/10--10--9-------|--------|---------------|--------------------------|
G|--7/9---9---9--7/9--|--------|-------0-------|--------------------------|
D|---------------7/9--|--2-----|--9----0----7--|--2--2--2--2--2--2--2--2--|
A|---------------5/7--|--2-----|--9---------7--|--2--2--2--2--2--2--2--2--|
E|--------------------|--0-----|--7---------5--|--0--0--0--0--0--0--0--0--|

e|-------------------------|
B|-------------------------|
G|---------------0-----7---|
D|--2------------0--2--7---|
A|--2--4/5\4--2-----0--5---|
E|--0--2/3\2--0------------|

1st Chorus

Let Ring-|           Let Ring          P.M.-------------|
e|------------------|-----------------|---------------------------|
B|------4--5--4-----|-----2h3p2-------|---------------------------|
G|--4---4--------4--|--2---------2----|---------------------0--2--|
D|--4---------------|--2-----------2--|--------4--------5---------|
A|--2---------------|--0--------------|-----4--------5------------|
E|------------------|-----------------|--2--------3---------------|

                       Let Ring-|         Let Ring	
e|--------------------|------------------|-----------------|
B|--------------------|------4--5--4-----|-----2h3p2-------|
G|--------------------|--4---4--------4--|--2---------2----|
D|--2-----------2--2--|--4---------------|--2-----------2--|
A|--2--------------2--|--2---------------|--0--------------|
E|--0--0--3--4-----0--|------------------|-----------------|
 
  P.M.-------------|
e|---------------------------|-----------------|-------------------------|
B|---------------------------|-----------------|-------------------------|
G|---------------------0--2--|-----------------|--5\4---2-------------2--|
D|--------4--------5---------|--2-----------2--|--5\4---2---5\4---2---2--|
A|-----4--------5------------|--2--------------|--3\2---0---5\4---2---0--|
E|--2--------3---------------|--0--0--3--4-----|------------3\2---0------|

e|--------------------------------|----------------------|
B|--------------------------------|----------------------|
G|--4b--4hb--4hb--4hb--4hb--4pbr--|--2--------0--2--7/9--|
D|--------------------------------|-----------0--2--7/9--|
A|--------------------------------|-----4--2-----0--5/7--|
E|--------------------------------|-----2--0-------------|

e|--------------------------|-----------------------------|------------------|
B|--------------------------|--------------------------5--|-----2--2br--0----|
G|--------------------------|---------------0--2--2/4-----|--4-------------2-|
D|--2--2--2--2--2--2--2--2--|--2------------0--2----------|------------------|
A|--2--2--2--2--2--2--2--2--|--2--4/5\4--2-----0----------|------------------|
E|--0--0--0--0--0--0--0--0--|--0--2/3\2--0----------------|------------------|

e|-----------------------|
B|-----------------------|
G|--2br--2--2p0-----7/9--|
D|---------------2--7/9--|
A|------------------5/7--|
E|-----------------------|

2nd Verse
e|--------|---------------|--------------------------|-----------------------|
B|--------|---------------|--10b--10b--10b--10br--8--|--10br--10--8h10p8-----|
G|--------|-------0-------|--------------------------|--------------------9--|
D|--2-----|--9----0----7--|--------------------------|-----------------------|
A|--2-----|--9---------7--|--------------------------|-----------------------|
E|--0-----|--7---------5--|--------------------------|-----------------------|


e|--------|--------|---------------|--------------------------|
B|--------|--------|---------------|--------------------------|
G|--7/9---|--------|-------0-------|--------------------------|
D|--7/9---|--2-----|--9----0----7--|--2--2--2--2--2--2--2--2--|
A|--5/7---|--2-----|--9---------7--|--2--2--2--2--2--2--2--2--|
E|--------|--0-----|--7---------5--|--0--0--0--0--0--0--0--0--|

e|-------------------------|
B|-------------------------|
G|---------------0-----7---|
D|--2------------0--2--7---|
A|--2--4/5\4--2-----0--5---|
E|--0--2/3\2--0------------|

2nd Chorus

Let Ring-|           Let Ring		P.M.-------------|
e|------------------|-----------------|---------------------------|
B|---------5--4-----|-----2h3p2-------|---------------------------|
G|--4------------4--|--2---------2----|---------------------0--2--|
D|--4---------------|--2-----------2--|--------4--------5---------|
A|--2---------------|--0--------------|-----4--------5------------|
E|------------------|-----------------|--2--------3---------------|

                       Let Ring-|         Let Ring	
e|-------------------|------------------|-----------------|
B|-------------------|------4--5--4-----|-----2h3p2-------|
G|-------------------|--4---4--------4--|--2---------2----|
D|--2-----------2----|--4---------------|--2-----------2--|
A|--2----------------|--2---------------|--0--------------|
E|--0--0--3--4-------|------------------|-----------------|

   P.M.-------------|					      P.M.-------------|
e|---------------------------|--------------------|--------------------------|
B|---------------------------|--------------------|--------------------------|
G|---------------------0--2--|--------------------|---------------------0--2-|
D|--------4--------5---------|--2--------2--------|--------4--------5--------|
A|-----4--------5------------|--2-----------------|-----4--------5-----------|
E|--2--------3---------------|--0--3bd------0--0--|--2--------3--------------|

					 P.M.-------------|
e|----------------------------|---------------------------|------------------|
B|----------------------------|---------------------------|------------------|
G|------2b--0--2--0-----------|---------------------0--2--|------------------|
D|--2----------------2--------|--------4--------5---------|--2-----------2---|
A|--2-------------------------|-----4--------5------------|--2---------------|
E|--0-------------------0--0--|--2--------3---------------|--0--0--3--4------|

e|-------------------------|------------------------------------------------|
B|-------------------------|------------------------------------------------|
G|--5\4---2-------------2--|--4b--4hb--4hb--4hb--4hb--4pbr--2\/\/\/\/\/\//--|
D|--5\4---2---5\4---2---2--|------------------------------------------------|
A|--3\2---0---5\4---2---0--|------------------------------------------------|
E|------------3\2---0------|------------------------------------------------|

Breakdown
e|---------|---------------------|--3b+p-0+p-----------------------|
B|---------|---------------------|------------+p3-0+p--------------|
G|---------|----------0-----7/9--|---------------------2br+p-------|
D|---------|----------0--2--7/9--|----------------------------2+p--|
A|---------|--5\4--2-----0--5/7--|---------------------------------|
E|---------|--3\2--0-------------|---------------------------------|

e|----------------|---------|---------------------|---------|
B|----------------|---------|---------------------|---------|
G|-----0-----7/9--|---------|----------0-----7/9--|---------|
D|-----0--2--7/9--|---------|----------0--2--7/9--|---------|
A|--2-----0--5/7--|---------|--5\4--2-----0--5/7--|---------|
E|--0-------------|---------|--3\2--0-------------|---------|

e|-------------------------|---------------------|--------------------------|
B|-------------------------|---------------------|--------------------------|
G|--5\4---2-------------2--|----------0-----7/9--|--------------------------|
D|--5\4---2---5\4---2---2--|----------0--2--7/9--|--2--2--2--2--2--2--2--2--|
A|--3\2---0---5\4---2---0--|--5\4--2-----0--5/7--|--2--2--2--2--2--2--2--2--|
E|------------3\2---0------|--3\2--0-------------|--0--0--0--0--0--0--0--0--|

e|---------------------|-------------------------------------|
B|---------------------|-------------------15b\/\/\//\/\/\/--|
G|---------------0--2--|--9/12\/\/\/\//\/--------------------|
D|--2------------0--2--|-------------------------------------|
A|--2--4/5\4--2-----0--|-------------------------------------|
E|--0--2/3\2--0--------|-------------------------------------|

3rd Verse
e|--------|---------------|--15/16--16--16--15--16--|-16--15--16--------|
B|--------|---------------|--14/15--15--15--14--15--|-15--14--15--------|
G|--------|-------0-------|--15/16--16--16--15--16--|-16--15--16---7/9--|
D|--2-----|--9----0----7--|-------------------------|--------------7/9--|
A|--2-----|--9---------7--|-------------------------|--------------5/7--|
E|--0-----|--7---------5--|-------------------------|-------------------|

e|---------|--------------|--------------------------|-----------------------|
B|---------|--------------|--------------------------|-----------------------|
G|---------|--4-------2---|--------------------------|-------------0-----7---|
D|----2----|--4-------2---|--2--2--2--2--2--2--2--2--|--2----------0--2--7---|
A|----2----|--2---5---0---|--2--2--2--2--2--2--2--2--|--2--5\4--2-----0--5---|
E|----0----|------3-------|--0--0--0--0--0--0--0--0--|--0--3\2--0------------|

3rd Chorus

Let Ring-|           Let Ring		   P.M.-------------|
e|------------------|-----------------|---------------------------|
B|---------5--4-----|-----2h3p2-------|---------------------------|
G|--4------------4--|--2---------2----|---------------------0--2--|
D|--4---------------|--2-----------2--|--------4--------5---------|
A|--2---------------|--0--------------|-----4--------5------------|
E|------------------|-----------------|--2--------3---------------|

                      Let Ring-|         Let Ring	
e|-------------------|------------------|-----------------|
B|-------------------|--------5--4------|-----2h3p2-------|
G|-------------------|--4-----------4---|--2---------2----|
D|--2-----------2----|--4---------------|--2-----------2--|
A|--2----------------|--2---------------|--0--------------|
E|--0--0--3--4-------|------------------|-----------------|

   P.M.-------------|					      P.M.-------------|
e|---------------------------|--------------------|--------------------------|
B|---------------------------|--------------------|--------------------------|
G|---------------------0--2--|--------------------|---------------------0--2-|
D|--------4--------5---------|--2------------2----|--------4--------5--------|
A|-----4--------5------------|--2-----------------|-----4--------5-----------|
E|--2--------3---------------|--0--0--0--0--------|--2--------3--------------|

e|-------------------------------|--2----3----5----|
B|-------------------------------|--2----3----5----|
G|-------------------------------|-----------------|
D|--2---0--0--0--2p0-------------|-----------------|
A|--2-----------------2--2p0-----|-----------------|
E|--0-------------------------0--|--2----3----5----|

						 P.M.------------------|
e|---------------------------------------------|-----------------------------|
B|---------------------------------------------|-----------------------------|
G|-----2bp+--0p+--2p+--0p+---------------------|-----------------------------|
D|--2-----------------------2p+-2p+p0p+--------|--------4--------5-----------|
A|--2-------------------------------------2p+--|-----4--------5----------7---|
E|--0------------------------------------------|--2--------3----------5------|

e|--------------|-------------------------|----------------------------------|
B|--------------|-------------------------|----------------------------------|
G|-------4p+----|--5\4---2-------------2--|--4b--4hb--4hb--4hb--4hb--4pbr--2-|
D|--------------|--5\4---2---5\4---2---2--|----------------------------------|
A|--------------|--3\2---0---5\4---2---0--|----------------------------------|
E|--0-----------|------------3\2---0------|----------------------------------|
							    
                                              Feedback w/ tremlo
e|-------------------|-----------------------|-------------------|
B|-------------------|-----------------------|-------------------|
G|--------0--2--7/9--|-----------------------|-------------------|
D|--------0--2--7/9--|--2--2--2--2--2--2--2--|-------------------|
A|--4--2-----0--5/7--|--2--2--2--2--2--2--2--|-------------------|
E|--2--0-------------|--0--0--0--0--0--0--0--|-------------------|

Outro
e|---------------------------------|------------------------|
B|---------------------------------|-------------------15b--|
G|---------------------------------|----------0--9/12-------|
D|--0--2---2--------------------2--|----------0-------------|
A|---------2--4/5\4----------------|--5\4--2----------------|
E|---------0--2/3\2--0\----/0------|--3\2--0----------------|
                       \  /
                        \/
e|------------------------------------------------------------|
B|--15b--15hb--15hb--15hb--15hb--15pbr--12-------15-----------|
G|------------------------------------------14b------14br-12--|
D|------------------------------------------------------------|
A|------------------------------------------------------------|
E|------------------------------------------------------------|

e|--------12--15b--15b--12------12-------12----------------------------------|
B|--9/12--------------------15------15b------15--15p12------12--12p10--------|
G|------------------------------------------------------14-------------12--9-|
D|---------------------------------------------------------------------------|
A|---------------------------------------------------------------------------|
E|---------------------------------------------------------------------------|

e|---------------10--10--10---------------|----------------------------------|
B|--10------10b--------------10pbr--8-----|--10-----8------------------------|
G|------12-----------------------------9--|------9-----9--7------------------|
D|----------------------------------------|------------------9--8--7---------|
A|----------------------------------------|---------------------------/9-----|
E|----------------------------------------|-------------------------------5\-|

e|--------------------------------------------|-----------------------------|
B|--------------------------------------------|-----------------------------|
G|--4b--4hb--4hb--4hb--4hb--4pbr--2------/2/--|-----------------------------|
D|---------------------------------\----/-----|--2--0--2--------------------|
A|----------------------------------\--/------|--2--------------------------|
E|-----------------------------------\/-------|--0--------3--0--3--0-----0--


GuitarII                                                                     

Intro
e|-----------------------------|---------------------|-----------------------| 
B|-----------------------------|---------------------|-----------------------|
G|--7--9-----------------------|---------------0--2--|-----------------------|
D|--7--9--2--2--2--2--2--2--2--|--2------------0--2--|--2--0--2-----------2--|
A|--5--7--2--2--2--2--2--2--2--|--2--4/5\4--2-----0--|--2--------------------|
E|--------0--0--0--0--0--0--0--|--0--2/3\2--0--------|--0--------3--0--3-----|

e|---------------------|--------------------------|---------------------|
B|---------------------|--------------------------|---------------------|
G|----------0--2--7/9--|--------------------------|---------------0--2--|
D|----------0--2--7/9--|--2--2--2--2--2--2--2--2--|--2------------0--2--|
A|--5\4--2-----0--5/7--|--2--2--2--2--2--2--2--2--|--2--4/5\4--2-----0--|
E|--3\2--0-------------|--0--0--0--0--0--0--0--0--|--0--2/3\2--0--------|

e|-----------------------|
B|-----------------------|
G|-----------------------|
D|--2--0--2-----------2--|
A|--2-----------------2--|
E|--0--------3--0--3--0--|

1st Verse
e|-----------|---------------|--------------------------|--------------------|
B|-----------|---------------|--------------------------|--------------------|
G|-----------|--4---------2--|--------------------------|--------------------|
D|----2------|--4----5----2--|--2--2--2--2--2--2--2--2--|-----------------7/9|
A|----2------|--2----5----0--|--2--2--2--2--2--2--2--2--|-2/5-----2/5--2--7/9|
E|----0------|-------3-------|--0--0--0--0--0--0--0--0--|-0/3--0--0/3--0--5/7|

e|-----------|---------------12--|--12------12--12------|-12-----------------|
B|-----------|-----------15------|------15----------15--|-----15p12----------|
G|-----------|--4----------------|----------------------|-----------14--12---|
D|----2------|--4----5-----------|----------------------|-----------------14-|
A|----2------|--2----5-----------|----------------------|--------------------|
E|----0------|-------3-----------|----------------------|--------------------|

1st Chorus
       Let Ring         Let Ring              P.M.------------------|
e|--------------------|---------------------|-----------------------------|
B|--------4--5--4-----|-----2--2h3p2--------|-----------------------------|
G|--7--4--4--------4--|--2--2---------2-----|-----------------------------|
D|--7--4--------------|--2---------------2--|--------4--------5-----------|
A|--5--2--------------|--0------------------|-----4--------5----------7---|
E|--------------------|---------------------|--2--------3----------5------|

                          Let Ring         Let Ring
e|----------------------|-----------------|---------------------|
B|----------------------|--------4--5--4--|-----2--2h3p2--------|
G|----------------------|--4--4--------4--|--2--2---------2-----|
D|--2------------2---2--|--4--------------|--2---------------2--|
A|--2----------------2--|--2--------------|--0------------------|
E|--0--0--3--4-------0--|-----------------|---------------------|

   P.M.------------------|
e|-----------------------------|------------------|-------------------------|
B|-----------------------------|------------------|-------------------------|
G|-----------------------------|------------------|--5\4---2-------------2--|
D|--------4--------5-----------|--2------------2--|--5\4---2---5\4---2---2--|
A|-----4--------5----------7---|--2---------------|--3\2---0---5\4---2---0--|
E|--2--------3----------5------|--0--0--3--4------|------------3\2---0------|

e|---------------------|--------------------------|---------------------|
B|---------------------|--------------------------|---------------------|
G|---------------0--2--|--------------------------|---------------0--2--|
D|--2------------0--2--|--2--2--2--2--2--2--2--2--|--2------------0--2--|
A|--2--4/5\4--2-----0--|--2--2--2--2--2--2--2--2--|--2--4/5\4--2-----0--|
E|--0--2/3\2--0--------|--0--0--0--0--0--0--0--0--|--0--2/3\2--0--------|

e|-----------------------|---------------------|
B|-----------------------|---------------------|
G|-----------------------|----------0-----7/9--|
D|--2--0--2-----------2--|----------0--2--7/9--|
A|--2-----------------2--|--5\4--2-----0--5/7--|
E|--0--------3--0--3--0--|--3\2--0-------------|

2nd Verse
e|-----------|---------------|--------------------------|
B|-----------|---------------|--------------------------|
G|-----------|--4---------2--|--------------------------|
D|----2------|--4----5----2--|--2--2--2--2--2--2--2--2--|
A|----2------|--2----5----0--|--2--2--2--2--2--2--2--2--|
E|----0------|-------3-------|--0--0--0--0--0--0--0--0--|

e|--------------------------|-----------|---------------12--|
B|--------------------------|-----------|-----------15------|
G|---------------0--2--7/9--|-----------|--4----------------|
D|--2------------0--2--7/9--|----2------|--4----5-----------|
A|--2--4/5\4--2-----0--5/7--|----2------|--2----5-----------|
E|--0--2/3\2--0-------------|----0------|-------3-----------|

e|--12------12--12------|-12---------------------|
B|------15----------15--|-----15p12--------------|
G|----------------------|------------14--14b-12--|
D|----------------------|------------------------|
A|----------------------|------------------------|
E|----------------------|------------------------|

2nd Chorus
      Let Ring             Let Ring          P.M.---------------------|
e|--------------------|---------------------|--------------------------|
B|--------4--5--4-----|-----2--2h3p2--------|--------------------------|
G|--7--4--4--------4--|--2--2---------2-----|--------------------------|
D|--7--4--------------|--2---------------2--|--------4--------5-----7--|
A|--5--2--------------|--0------------------|-----4--------5-----------|
E|--------------------|---------------------|--2--------3--------5-----|

                     Let Ring         Let Ring
e|------------------|-----------------|---------------------|
B|------------------|--------4--5--4--|-----2--2h3p2--------|
G|------------------|--4--4--------4--|--2--2---------2-----|
D|--2------------2--|--4--------------|--2---------------2--|
A|--2---------------|--2--------------|--0------------------|
E|--0--0--3--4------|-----------------|---------------------|

   P.M.------------------|
e|-----------------------------|------------------------|
B|-----------------------------|------------------------|
G|-----------------------------|------------------------|
D|--------4--------5-----------|--2------------2--------|
A|-----4--------5----------7---|--2---------------------|
E|--2--------3----------5------|--0--0--3--4------0--0--|

   P.M.------------------|
e|-----------------------------|------------------------|
B|-----------------------------|------------------------|
G|-----------------------------|------------------------|
D|--------4--------5-----------|--2------------2--------|
A|-----4--------5----------7---|--2---------------------|
E|--2--------3----------5------|--0--0--3--4------0--0--|

   P.M.------------------|
e|-----------------------------|------------------|-------------------------|
B|-----------------------------|------------------|-------------------------|
G|-----------------------------|------------------|--5\4---2-------------2--|
D|--------4--------5-----------|--2------------2--|--5\4---2---5\4---2---2--|
A|-----4--------5----------7---|--2---------------|--3\2---0---5\4---2---0--|
E|--2--------3----------5------|--0--0--3--4------|------------3\2---0------|

e|---------------------|
B|---------------------|
G|----------0-----7/9--|
D|----------0--2--7/9--|
A|--5\4--2-----0--5/7--|
E|--3\2--0-------------|

Breakdown
e|---------|---------------------|-----------|---------------------|
B|---------|---------------------|-----------|---------------------|
G|---------|----------0-----7/9--|-----------|----------0-----7/9--|
D|---------|----------0--2--7/9--|-----------|----------0--2--7/9--|
A|---------|--5\4--2-----0--5/7--|-----------|--5\4--2-----0--5/7--|
E|---------|--3\2--0-------------|-----------|--3\2--0-------------|

e|------------------------------------|---------------------|---------|
B|--15---------------14------12--15b--|---------------------|---------|
G|--14br--14p12------14--14--12-------|----------0-----7/9--|---------|
D|---------------14------14-----------|----------0--2--7/9--|---------|
A|------------------------------------|--5\4--2-----0--5/7--|---------|
E|------------------------------------|--3\2--0-------------|---------|

e|-------------------------|---------------------|--------------------------|
B|-------------------------|---------------------|--------------------------|
G|--5\4---2-------------2--|----------0-----7/9--|--------------------------|
D|--5\4---2---5\4---2---2--|----------0--2--7/9--|--2--2--2--2--2--2--2--2--|
A|--3\2---0---5\4---2---0--|--5\4--2-----0--5/7--|--2--2--2--2--2--2--2--2--|
E|------------3\2---0------|--3\2--0-------------|--0--0--0--0--0--0--0--0--|

e|--------------------------|-----------------------|---------------------|
B|--------------------------|-----------------------|---------------------|
G|---------------0--2--7/9--|-----------------------|----------0-----7/9--|
D|--2------------0--2--7/9--|--2--0--2-----------2--|----------0--2--7/9--|
A|--2--4/5\4--2-----0--5/7--|--2-----------------2--|--5\4--2-----0--5/7--|
E|--0--2/3\2--0-------------|--0--------3--0--3--0--|--3\2--0-------------|

3rd Verse
e|-----------|---------------|--------------------------|--------------------|
B|-----------|---------------|--------------------------|--------------------|
G|-----------|--4---------2--|--------------------------|---------------7/9--|
D|----2------|--4----5----2--|--2--2--2--2--2--2--2--2--|--5--5--5------7/9--|
A|----2------|--2----5----0--|--2--2--2--2--2--2--2--2--|--5--5--5--2---5/7--|
E|----0------|-------3-------|--0--0--0--0--0--0--0--0--|--3--3--3--0--------|

e|-----------|---------------|-------12--15p12------12------------------|
B|-----------|---------------|--15b-------------15------15b--15b-15br---|
G|-----------|--4---------2--|------------------------------------------|
D|----2------|--4----5----2--|------------------------------------------|
A|----2------|--2----5----0--|------------------------------------------|
E|----0------|-------3-------|------------------------------------------|

                       3rd Chorus  
                             Let Ring            Let Ring
e|---------------------|--------------------|---------------------|
B|--15p12--------------|--------4--5--4-----|-----2--2h3p2--------|
G|---------14--12------|--7--4--4--------4--|--2--2---------2-----|
D|-----------------14--|--7--4--------------|--2---------------2--|
A|---------------------|--5--2--------------|--0------------------|
E|---------------------|--------------------|---------------------|

   P.M.------------------|			   Let Ring
e|-----------------------------|------------------|-----------------|
B|-----------------------------|------------------|-----4--5--4-----|
G|-----------------------------|------------------|--4--4--------4--|
D|--------4--------5--------7--|--2------------2--|--4--------------|
A|-----4--------5--------------|--2---------------|--2--------------|
E|--2--------3----------5------|--0--0--3--4------|-----------------|

                         P.M.--------------|
e|---------------------|-------------------------|-----------------------|
B|-----2--2h3p2--------|-------------------------|-----------------------|
G|--2------------2-----|----------------------2--|-----------------------|
D|--2---------------2--|--------4--------5----2--|--2-----------2--------|
A|--0------------------|-----4--------5-------0--|--2--------------------|
E|---------------------|--2--------3-------------|--0--0--3--4-----0--0--|

   P.M.--------------|
e|-------------------------|-----------------------|
B|-------------------------|-----------------------|
G|----------------------2--|-----------------------|
D|--------4--------5----2--|--2-----------2--------|
A|-----4--------5-------0--|--2--------------------|
E|--2--------3-------------|--0--0--3--4-----0--0--|

   P.M.--------------|
e|-------------------------|-----------------------|
B|-------------------------|-----------------------|
G|----------------------2--|-----------------------|
D|--------4--------5----2--|--2-----------2--------|
A|-----4--------5-------0--|--2--------------------|
E|--2--------3-------------|--0--0--3--4-----0--0--|

   P.M.--------------|
e|-------------------------|-------------------|-------------------------|
B|-------------------------|-------------------|-------------------------|
G|----------------------2--|-------------------|--5\4---2-------------2--|
D|--------4--------5----2--|--2-----------2----|--5\4---2---5\4---2---2--|
A|-----4--------5-------0--|--2----------------|--3\2---0---5\4---2---0--|
E|--2--------3-------------|--0--0--3--4-------|------------3\2---0------|

e|---------------------|--------------------------|--------------------------|
B|---------------------|--------------------------|--------------------------|
G|----------0--2--7/9--|--------------------------|---------------0--2--7/9--|
D|----------0--2--7/9--|--2--2--2--2--2--2--2--2--|--2------------0--2--7/9--|
A|--5\4--2-----0--5/7--|--2--2--2--2--2--2--2--2--|--2--4/5\4--2-----0--5/7--|
E|--3\2--0-------------|--0--0--0--0--0--0--0--0--|--0--2/3\2--0-------------|

Outro
e|-----------------------|---------------------|--------------------------|
B|-----------------------|---------------------|--------------------------|
G|-----------------------|----------0-----7/9--|--------------------------|
D|--2--0--2-----------2--|----------0--2--7/9--|--2--2--2--2--2--2--2--2--|
A|--2--------------------|--5\4--2-----0--5/7--|--2--2--2--2--2--2--2--2--|
E|--0--------3--0--3-----|--3\2--0-------------|--0--0--0--0--0--0--0--0--|

e|--------------------------|-----------------------|---------------------|
B|--------------------------|-----------------------|---------------------|
G|---------------0--2--7/9--|-----------------------|----------0-----7/9--|
D|--2------------0--2--7/9--|--2--0--2-----------2--|----------0--2--7/9--|
A|--2--4/5\4--2-----0--5/7--|--2--------------------|--5\4--2-----0--5/7--|
E|--0--2/3\2--0-------------|--0--------3--0--3-----|--3\2--0-------------|

e|--------------------------|---------------------|-----------------------|
B|--------------------------|---------------------|-----------------------|
G|--------------------------|---------------0--2--|-----------------------|
D|--2--2--2--2--2--2--2--2--|--2------------0--2--|--2--0--2-----------2--|
A|--2--2--2--2--2--2--2--2--|--2--4/5\4--2-----0--|--2--------------------|
E|--0--0--0--0--0--0--0--0--|--0--2/3\2--0--------|--0--------3--0--3-----|

e|---------------------|--------------------------|--------------------------|
B|---------------------|--------------------------|--------------------------|
G|----------0--2--7/9--|--------------------------|---------------0--2--7/9--|
D|----------0--2--7/9--|--2--2--2--2--2--2--2--2--|--2------------0--2--7/9--|
A|--5\4--2-----0--5/7--|--2--2--2--2--2--2--2--2--|--2--4/5\4--2-----0--5/7--|
E|--3\2--0-------------|--0--0--0--0--0--0--0--0--|--0--2/3\2--0-------------|

e|-----------------------|-------------------------|---------------------|
B|-----------------------|-------------------------|---------------------|
G|-----------------------|--5\4---2-------------2--|----------0--2--7/9--|
D|--2--0--2-----------2--|--5\4---2---5\4---2---2--|----------0--2--7/9--|
A|--2--------------------|--3\2---0---5\4---2---0--|--5\4--2-----0--5/7--|
E|--0--------3--0--3-----|------------3\2---0------|--3\2--0-------------|

e|-----------------------|
B|-----------------------|
G|-----------------------|
D|--2--0--2-----------2--|
A|--2-----------------2--|
E|--0--------3--0--3--0--|


************************************
| /   slide up
| \   slide down
| h   hammer-on
| p   pull-off
| ~   vibrato
| +   harmonic
| x   Mute note
| b   Bend
| pb  Pre-bend
| br  Bend release
| pbr Pre-bend release
| brb Bend release bend
************************************
Intro

D   EVII   E

G    F#    G   A    D    EVII

N.C.

G    F#    G   A    D    EVII   E

G    F#    G   A    D    EVII

N.C.

1st Verse

       E                                    B            G   A E          G    F#    G   A    D
Ah, sitting in the back seat of a low ride automobile 

          E                           B                  G      A       E        
we're cruisin' on the outskirts lookin' for a two legged deal 

1st Chorus
G    F#    G D
We got a



B       A         F#    G             A       E
 Dry County can't find no spirits here 

B      A          F#               G     A       E
Dry County run for your life out of fear 

C     B       A     G     F# E A      F# G E A      D         EVII   E
for things that you cannot find across a Dry County line 

G    F#    G   A    D    EVII

N.C.

2nd Verse

          E	                       B                    G    A    E     G  F# G A  D 
If the signs say liquor in the front baby and poker in the rear 

E                                      B                          G   A E
all you find is trouble it's best that you get out of here 

2nd Chorus
G     F# E    A    D
You got a 

B       A         G     F#          A     E
Dry County can't find no vices here no no no no no 

B      A         F#                G    A        E      N.C
Dry County run for your life out of fear

F#                 G     A       E     N.C.
 run for your life out of fear 

F#                 G        A    E       N.C.
can't find no spirits nowhere 

C     B       A     G     F# E A      F# G E A      D         EVII   E
for things that you cannot find across a Dry County line 


Breakdown

G    F#    G   A    D    EVII

G    F#    G   A    D    EVII

G    F#    G   A    D    EVII

G    F#    G   A    D    EVII

G    F#    G   A    D    EVII

C     B       A     G     F# E A      F# G E A      D         EVII   E

G    F#    G   A    D    EVII

N.C.

3rd Verse

      E                        B                        G        A     E     G    F#    G   A    D 
Ah L.A. to London Buzzard County New Mexico 

E                                     B                            G     A     E
Detroit to Atlanta there ain't no place that's too far to go

G    F#    G      A    D 
 to get a-way from this 

B      A         F#     G         A     E       N.C.
Dry County can't find no vices here no no no no no 

B      A         F#                G         A     E     N.C.
Dry County run for your life out of here 

F#                G         A     E     N.C.
run for your life out of fear 

F#                G         A     E      N.C.
ah run baby keep on runnin' 

      F#                G         A     E      N.C
ah there ain't no Busch no-where 

C     B       A     G     F# E A      F# G E A      D         EVII   E
for things that you cannot find across a Dry County line

Outro

F#   G    F#    E    A     D   EVII       N.C.

G     F#    E   A     D     EVII    E

F#   G    F#    E    A     D   EVII       N.C.

G     F#    E   A     D     EVII    E

F#   G    F#    E    A     D   EVII       N.C.

G     F#    E   A     D     EVII    E

F#   G    F#    E    A     D   EVII       N.C.

C     B       A     G     F#   E   A    F#  G  E   A 

G     F#    E   A     D     EVII    N.C.    E





Comments


Popular Blackfoot tabs & chords
Train, Train Bass Tabs
Baby Blue Tabs
Every Man Should Know (Queenie) Tabs
Fire Of The Dragon Tabs
Good Morning Tabs
Highway Song Tabs
Payin For It Tabs
Road Fever Tabs
Train Train Tabs
Wishing Well Tabs


Song lyrics



↑ Back to top | Tablatures and chords are parodies/interpretations of the original songs. You may use it for private study, scholarship, research or language learning purposes only
© 2014 AZChords.com Contact us | Privacy policy | DMCA | Add/correct tabs | Request tabs | Top 50 tabs