» » »

Blackfoot, Diary Of A Working Man Tabs (ver.1)

Artists:  A B C D E F G H I J K L M N O P Q R S T U V W X Y Z # 

Diary Of A Working Man Tabs (ver.1)

Blackfoot Tabs
Rating:
5/5 (2 votes)
Diary Of A Working Man lessons Tabs too difficult? Try these video lessons and learn fast
                Blackfoot - Diary Of A Working Man

                                      
INTRO Acoustic GTR -repeat 3 times...
e--------------0----------------0---------------3.-----2.-------|
B-------1.---------------1.--------------1.---------------1---1-|
G-----2----2-----------2----2----------2----2------2------------|
D-0p2--------0----------------0---------------0------0------0---|
A------------------0p2------------------------------------------|
E----------------------------------0p2--------------------------|

...then
e--------------1.------1------------------------------0-------|
B-------1.----------1.---1-------------------------0.---------|
G-----0----0---------------0--------1.-----1p2------------0---|
D---3--------3----3---------------2----2-------2--------2-----|
A-3-----------------------------2--------2-------2------------|
E-----------------------------0-------------------------------|


e-----------0------------3p2-----------------------0.----|
B-------1--------------3-----3---------------0-----------|
G-----2---------0----2---------2----------1.---1---------|
D---2-----2---2----0-------------0------2--------2-------|
A-0-----------------------------------2------------------|
E-----------------------------------0--------------------|

1st VERSE
            In a   room   all   alone....        (repeat 3 times) 
e--------------0----------------0---------------3.-----2.-------|
B-------1.---------------1.--------------1.---------------1---1-|
G-----2----2-----------2----2----------2----2------2------------|
D-0p2--------0----------------0---------------0------0------0---|
A------------------0p2------------------------------------------|
E----------------------------------0p2--------------------------|

      ...so begins the diary,                      of a working
e--------------1.------1------------------------------0-------|
B-------1.----------1.---1-------------------------0.---------|
G-----0----0---------------0--------1.-----1p2------------0---|
D---3--------3----3---------------2----2-------2--------2-----|
A-3-----------------------------2--------2-------2------------|
E-----------------------------0-------------------------------|

 man
e-----------0------------3p2-----------0.----------------------|
B-------1--------------3-----3------------0------------1------1|
G-----2---------0----2---------2------------1--------0------0--|
D---2-----2---2----0-------------0---2--------0----2------0----|
A-0----------------------------------------------3------2------|
E----------------------------------0.--------------------------|

2nd VERSE
            He'd be a poor man....               (repeat 3 times) 
e--------------0----------------0---------------3.-----2.-------|
B-------1.---------------1.--------------1.---------------1---1-|
G-----2----2-----------2----2----------2----2------2------------|
D-0p2--------0----------------0---------------0------0------0---|
A------------------0p2------------------------------------------|
E----------------------------------0p2--------------------------|

      he doesn't know....                          oh, another 
e--------------1.------1------------------------------0-------|
B-------1.----------1.---1-------------------------0.---------|
G-----0----0---------------0--------1.-----1p2------------0---|
D---3--------3----3---------------2----2-------2--------2-----|
A-3-----------------------------2--------2-------2------------|
E-----------------------------0-------------------------------|

 day                                             oh, another
e-----------0------------3p2-----------0.----------------------|
B-------1--------------3-----3------------0------------1------1|
G-----2---------0----2---------2------------1--------0------0--|
D---2-----2---2----0-------------0---2--------0----2------0----|
A-0----------------------------------------------3------2------|
E----------------------------------0.--------------------------|

 day                                             
e-----------0------------3p2-----------0.----------------------|
B-------1--------------3-----3------------0------------1------1|
G-----2---------0----2---------2------------1--------0------0--|
D---2-----2---2----0-------------0---2--------0----2------0----|
A-0----------------------------------------------3------2------|
E----------------------------------0.--------------------------|

BRIDGE 1
e-------------------------------------3h2-----0.-----0p2--------|
B------0.-----3.-----1h0------------3-----3------3-------3------|
G---------2------2-------2---0----2---------2------2---------0--|
D----2------2------2-------2----0--------------------------0----|
A-0.------------------------------------------------------------|
E---------------------------------------------------------------|


e--------------------------------------------------------------|
B-------0.-----3.-----1h0-------------3-------3-------3-------0|
G-----2----2------2-------2---0-----2-------0-------0-------0--|
D---2--------2------2-------2-----0-------0-------0-------0----|
A-0-----------------------------5-------3-------2--------------|
E-------------------------------------------------------3------|


e-------------------------------------3h2-----0.-----0p2--------|
B------0.-----3.-----1h0------------3-----3------3-------3------|
G---------2------2-------2---0----2---------2------2---------0--|
D----2------2------2-------2----0--------------------------0----|
A-0.------------------------------------------------------------|
E---------------------------------------------------------------|


e--------------1.------1-------------------3.--------------|
B-------1.----------1.--------------0.---------------------|
G-----0----0---------------0------0----0--------0---0---0--|
D---3--------3----3------3------0--------0----0------------|
A-3-----------------------------------------------2---3----|
E-----------------------------3----------------------------|


e-----------0-----------3h2------------------------------------|
B-------0-----0-------3-----2-----------0----------------------|
G-----2---------0---2---------3-------1-----1-----------------4|
D---2-----2-------0-------------0---2---------2-------3-----5--|
A-0---------------------------------------------2---3-----5----|
E---------------------------------0-------0-------1.----3------|


My Notation is:

	/  slide
	
	\  slide
	
	'  bend
	
	'( )  Bend to the note in ( )
	
	h  hammer on
	
	p  pull off
            
Submit corrections

comments powered by Disqus
↑ Back to top | Blackfoot Tabs for Diary Of A Working Man. Lyrics for acoustic guitar and electric guitar. Tablatures and chords are parodies/interpretations of the original songs. You may use it for private study, scholarship, research or language learning purposes only