» » »

Black Eyed Peas, Loosing My Ground Tabs (ver.1)

Artists:  A B C D E F G H I J K L M N O P Q R S T U V W X Y Z # 

Loosing My Ground Tabs (ver.1)

Black Eyed Peas Tabs
 Rating:
4/5 (4 votes)
Loosing My Ground lessons Tabs too difficult? Try these video lessons and learn fast
                ---------------------------------------------------------------------------
        LOOSING MY GROUND - FERGIE of black eyed peas                      
---------------------------------------------------------------------------



Intro:
e|--------6---------|--------6------|----------6-----|---------------------|
B|-8---8-8-----8----|-7---7-7----7--|-6---6-6----6---|-5----5-5-6-7--------|
G|---7----------7---|---7---------7-|---7----------7-|---7---7-------------|
D|------------------|---------------|----------------|---------------------|
A|------------------|---------------|----------------|---------------------|
E|------------------|---------------|----------------|---------------------|
just REPEAT for verse and chorus:


GUITAR ADLIB:
               ~                  ~
e|-3/5-5-5/6-6-6--|-6/8-8-8/10-10-10--|--10\8-8-8\6-6-6-|-10-8-6-5-3-------|
B|----------------|-------------------|-----------------|------------------|
G|----------------|-------------------|-----------------|------------------|
D|----------------|-------------------|-----------------|------------------|
A|----------------|-------------------|-----------------|------------------|
E|----------------|-------------------|-----------------|------------------|


2nd adlib:

e|-10\8-8-8/10-10-10--|--10\8-8-8\6-6-6--|--3/5-5-5\3-3-3--|-10-8-6-5-3----|
B|--------------------|------------------|-----------------|---------------|
G|--------------------|------------------|-----------------|---------------|
D|--------------------|------------------|-----------------|---------------|
A|--------------------|------------------|-----------------|---------------|
E|--------------------|------------------|-----------------|---------------|

3rd adlib:

e|-3--3--3--3--3----|-5--5--5--5--5----|-6--6--6--6--6---|--3----3---------|
B|---3--3--3--3--3--|---7--7--7--7--7--|---8--8--8--8----|---3----3--------|
G|--3--3--3--3--3---|--7--7--7--7--7---|--7--7--7--7--7--|-3--3----3-------|
D|------------------|------------------|-----------------|-----------------|
A|------------------|------------------|-----------------|-----------------|
E|------------------|------------------|-----------------|-----------------|
            
Submit corrections

comments powered by Disqus
↑ Back to top | Black Eyed Peas Tabs for Loosing My Ground. Lyrics for acoustic guitar and electric guitar. Tablatures and chords are parodies/interpretations of the original songs. You may use it for private study, scholarship, research or language learning purposes only