» » »

Let's Get It Started Bass tabs (ver.2)

Artists:  A B C D E F G H I J K L M N O P Q R S T U V W X Y Z # 

Let's Get It Started Bass tabs (ver.2)

Black Eyed Peas
Rating:
0/5 (0 votes)

Tabs too difficult? Try these video lessons and learn fast.
                
comment: The main parts of this song have already been tabbed, but here are some exteras 
throw in to add variety to the song! Mix it up and enjoy!

Tuning: Standard E, A, D, G
Into:("Lets Get it Started in here")

G|---16h18-------------------------------------------------------------------|
D|----------18-16-18--16~--18-16-18/20-18\16---16----------------------------|
A|-------------------------------------------18--18~-------------------------|
E|---------------------------------------------------------------------------|

Melodic Chorus:(vocal part) note: repeat as reqired
{ } = optional for advanced players

G|---{9h}11-11-11-11------------{9h}11-11-11-11-----/12-11-----------------|
D|-------------------12-9-12---------------------12------------------------|
A|-------------------------------------------------------------------------|
E|-------------------------------------------------------------------------|

Breakdown/Ending:("ohhhhh hoooooo")

G|---/21-19-[repeat x 5 or so]--19-19-19-19-19-19-19--21-21-21-21-18-18-18-|
D|-------------------------------------------------------------------------|
A|-------------------------------------------------------------------------|
E|-------------------------------------------------------------------------|

G|-18----------------------------------------------------------------------|
D|----21--[rest]--21-21-[repeat this line x 3]-----------------------------|
A|-------------------------------------------------------------------------|
E|-------------------------------------------------------------------------|

Although this is simple, it makes playing along with the song a whole lot more 
is my first tab so you can rate it if you think it's okay.

Happy Bass playing!!!
            
Tabs too difficult? Try these video lessons and learn fast.




comments powered by Disqus
↑ Back to top | Tablatures and chords are parodies/interpretations of the original songs. You may use it for private study, scholarship, research or language learning purposes only