» » »

Let's Get It Started Bass tabs (ver.1)

Artists:  A B C D E F G H I J K L M N O P Q R S T U V W X Y Z # 

Let's Get It Started Bass tabs (ver.1)

Black Eyed Peas
Rating:
0/5 (0 votes)
Tabs too difficult? Try these video lessons and learn fast.
                Intro/Verse

G--------------------------------------------|
D-------------------------------5-------4----|    
A--2---2---4---5-----5--------5---5----4---4-|     
E----2------------5-----5---3--------2-------|

G------4--6-7--------------------------------|
D----4--------7-------------5---------4------|    Intro 2x,  
A--2------------5---------5----5-----4---4---|     
E------------------5----3---------2----------|


G--------------------------------------------|
D-------------------------------5-------4----|    Verse 2x,
A--2---2---4---5-----5--------5---5----4---4-|     
E----2------------5-----5---3--------2-------|

G-------------------------|
D-------------------------|    
A--2---2---4---5-----5----|     
E----2------------5-----5-|

Pre-Chorus

G------------------------------------------|
D------------------------------------------|
A--2--------5------------------------------|
E----------------------3-------------2-----|

G------------------------------------------|
D--------------------------------------4---|
A--2--------5------------------------4---4-|
E----------------------3---3-------2-------|

Chorus

G--------------------------------------------|
D-------------------------------5-------4----|  
A--2---2---4---5-----5--------5---5----4---4-|     
E----2------------5-----5---3--------2-------|

G------4--6-7--------------------------------|
D----4--------7-------------5---------4------|     2x,
A--2------------5---------5----5-----4---4---|     
E------------------5----3---------2----------|

Bit After Chorus

G------------------------------------------|
D------------------------------------------|
A--2--------5------------------------------|
E----------------------3---3----------2----|

G------------------------------------------|
D--------------------------------------4---|
A--2---2----5------------------------4---4-|
E----------------------3---3-------2-------|

Verse 2

G--------------------------------------------|
D-------------------------------5-------4----|    3x,
A--2---2---4---5-----5--------5---5----4---4-|     
E----2------------5-----5---3--------2-------|

Pre-Chorus

G------------------------------------------|
D------------------------------------------|
A--2--------5------------------------------|
E----------------------3-------------2-----|

G------------------------------------------|
D--------------------------------------4---|
A--2---2----5---5--------------------4---4-|
E----------------------3---3-------2-------|

Chorus

G--------------------------------------------|
D-------------------------------5-------4----|  
A--2---2---4---5-----5--------5---5----4---4-|     
E----2------------5-----5---3--------2-------|

G------4--6-7--------------------------------|
D----4--------7-------------5---------4------|     2x,
A--2------------5---------5----5-----4---4---|     
E------------------5----3---------2----------|

Interlude

G-----------------------------------------|
D-----------------------------------------|
A-2-xxxxxxxxxxxxxxxxxxxxxxxxxxxxxxxxxxxxxx|
E-----------------------------------------|

Bridge

G---------------------------------------|
D---------------------------------------|   3X
A--2-2-2-2----------5-5-5-5-------------|
E-----------3-3-3-3-----------2-2-2-2---|

Interlude

G---------------------------------------|
D---------------------------------------|
A---------------------------------------|
E--3-3-3-3-3-3-3-3---5-5-5-5--2-2-2-2---|

Verse 3

G----------------------------|
D----------------------------|   3X And Then This:
A--2----2--2-------2----2--2-|
E----------------------------|

G-------------------------------------|
D----------0-----0--------------------|  2X
A--2----2-----------------------------|
E-------------------3----3--2----2----|

Pre-Chorus

G------------------------------------------|
D------------------------------------------|
A--2--------5------------------------------|
E----------------------3-------------2-----|

G------------------------------------------|
D--------------------------------------4---|
A--2---2----5---5--------------------4---4-|
E----------------------3---3-------2-------|

Chorus

G--------------------------------------------|
D-------------------------------5-------4----|  
A--2---2---4---5-----5--------5---5----4---4-|     
E----2------------5-----5---3--------2-------|

G------4--6-7--------------------------------|
D----4--------7-------------5---------4------|     2x,
A--2------------5---------5----5-----4---4---|     
E------------------5----3---------2----------|

Bridge

G---------------------------------------|
D---------------------------------------|   3X
A--2-2-2-2----------5-5-5-5-------------|
E-----------3-3-3-3-----------2-2-2-2---|

Outro

G--------------------------------------------|
D--------------------------------------------|
A------------------------------------------2-|
E--3-3-3-3-3-3-3-3----5-5-5-5-----2-2-2-2----|

Im knew to this thing so i hope it came out well...everything sounds just like
            
Tabs too difficult? Try these video lessons and learn fast.


comments powered by Disqus
↑ Back to top | Tablatures and chords are parodies/interpretations of the original songs. You may use it for private study, scholarship, research or language learning purposes only