» » »

Black Eyed Peas, Just Can't Get Enough Bass tabs (ver.1)

Artists:  A B C D E F G H I J K L M N O P Q R S T U V W X Y Z # 

Just Can't Get Enough Bass tabs (ver.1)

Black Eyed Peas Tabs
 Rating:
4/5 (4 votes)
Just Can't Get Enough lessons Tabs too difficult? Try these video lessons and learn fast
                
(First time only)
G-------------------------------------------12------------------------------|
D-------13----15-------------------13---------------------------------------|
A--15----------------13-----13-------------------------------------15-------|
E----------------------------------------------------16---11---16-----------|


G------------------------------|
D--13--15-----15-------17------|
A---------13------15-------15--|
E------------------------------|

(Repeat this over. The song only playes it once, but its a cool lick so i play it more)
G-----------------------------------------12--|
D-15---17----------13---15------13---13-------|
A-----------15--------------13----------------|
E---------------------------------------------|



G---------------------------------------------------------------------------|
D----------------------13--15------15--------17-----------------------------|
A----------------15------------13--------15-------15------------------------|
E---16--11--16--------------------------------------------------------------|
            
Submit corrections

comments powered by Disqus
↑ Back to top | Black Eyed Peas Bass for Just Can't Get Enough. Lyrics for acoustic guitar and electric guitar. Tablatures and chords are parodies/interpretations of the original songs. You may use it for private study, scholarship, research or language learning purposes only