» » »

What A Horrible Night To Have A Curse Tabs (ver.3)

Artists:  A B C D E F G H I J K L M N O P Q R S T U V W X Y Z # 

What A Horrible Night To Have A Curse Tabs (ver.3)

Black Dahlia Murder
Rating:
0/5 (0 votes)

Hard to play? Try these video lessons and learn fast.
                |------------------------------| X2
|----14------------------------|
|-------14-13-14-13-14-13------|
|-16----------------------16---|
|------------------------------|
|------------------------------|

|------------------------------------|
|------------------------------------|
|------------------------------------|
|------------------------------------|
|-16-17-16-----16-17-16----19---17---|
|------------------------------------|

|------------------------------|
|----14------------------------|
|-------14-13-14-13-14-13------|
|-16----------------------16---|
|------------------------------|
|------------------------------|

|-------------------------------------|
|-------------14-15-14----------------|
|----13-14-16----------16-14-16-14-13-|
|-16----------------------------------|
|-------------------------------------|
|-------------------------------------|

Crazy awesome fast triplets
|-------------------------------------------------------|
|----------14-15-17-15-14----14----------------14-15-17-|
|-13-14-16----------------16----16-14-13-14-16----------|
|-------------------------------------------------------|
|-------------------------------------------------------|
|-------------------------------------------------------|

|-------------------------------------------------------|
|----------15-17-19-17-15----15----------------15-17-19-|
|-14-16-18----------------18----18-16-14-16-18----------|
|-------------------------------------------------------|
|-------------------------------------------------------|
|-------------------------------------------------------|
end of crazy awesome fast triplets :[

|----------------------------------------------------------------------------|
|-------14-15-14----------14-15-14----------14-15-14----18-15-14-15p14----14-|
|----14----------14----14----------14----14----------14----------------16----|
|-16----------------16----------------16-------------------------------------|
|----------------------------------------------------------------------------|
|----------------------------------------------------------------------------|

|----------------------------------------------------------------------------|
|-------12-14-12----------12-14-12----------12-14-12----15-14-12-14p12----12-|
|----13----------13----13----------13----13----------13----------------14----|
|-15----------------15----------------15-------------------------------------|
|----------------------------------------------------------------------------|
|----------------------------------------------------------------------------|

|-------------------------------------------------------------------------------|
|-------14-15-14----------14-15-14----------14-15-14----18-15-14-15p14-15-14----|
|----14----------14----14----------14----14----------14----------------------16-|
|-16----------------16----------------16----------------------------------------|
|-------------------------------------------------------------------------------|
|-------------------------------------------------------------------------------|

Crazy awesome fast triplets
|------------------------------------------------------------------------------|
|-14-12-10-12-10----10---------------------------------------------------------|
|----------------13----13-11-13-11-10-11-10----10------------------------------|
|-------------------------------------------12----12-11-12-11-9----------------|
|---------------------------------------------------------------12-11-9-8------|
|-------------------------------------------------------------------------10-9-|
end of crazy awesome fast triplets :[
            
Hard to play? Try these video lessons and learn fast. | Correct




comments powered by Disqus
↑ Back to top | Tablatures and chords are parodies/interpretations of the original songs. You may use it for private study, scholarship, research or language learning purposes only