>
 >
Warborn

Warborn Bass Tabs

Black Dahlia Murder - Warborn chords, tabs, tablatures, lyrics

Guitar lessons | Add/correct | Request | Top 50 tabs Artists:  A B C D E F G H I J K L M N O P Q R S T U V W X Y Z 0-9

Warborn Bass Tabs – Black Dahlia Murder

CD, Sheet music, Poster

Do you like Warborn? Share with your friends now
Bass Tabs
Warborn
The Black Dahlia Murder
Nocturnal


Tempo:161

D#|-----------------------------------------------------|
A#|-----------------------------------------------------|
F |--5-55-5-5-5----5-55-5-5-5----5-55-5-5-5-----44-4-4-4|x4
C |------------------------------------------4----------|		

|------------------------------------------|
|------------------------------------------|     
|----3--------------------5---54-4-4-4-4-4|
|3-3---3-3-3-5-5-----6-6----6--------------|

|-----------------------------------|
|-----------------------------------|
|-----------------------------------|x2
|--5--0-5-0-050-5-0-0-------------|

|------------------------------|
|------------------------------|
|------------------------------|
|--4-0-4-0-0-4-0-4-0-0--------| 

|-----------------------------------|
|-----------------------------------|
|-----------------------------------|x3
|--5--0-5-0-050-5-0-0-------------|

|------------------------------|
|------------------------------|
|------------------------------|
|--4-0-4-0-0-4-0-4-0-0--------| 

|-----------------------------------|
|-----------------------------------|
|-----------------------------------|
|--5--0-5-0-050-5-0-0-------------|

|-----------------------------------------------------|
|-----------------------------------------------------| 
|--5-55-5-5-5----5-55-5-5-5----5-55-5-5-5-----44-4-4-4|x4
|------------------------------------------4----------|

|----------------------------------------------------------|
|----------------------------------------------------------|    
|------3-3---------------------------4-4-4-4-4-4-----------|
|-3-3-------3-3-5-5-5----6--6-6--6-------------------------|

|-------------------|    
|-------------------|      
|-5\5-5-5\--5-5-5--|x2  
|-------------------|    

|------------------------------------------------------|
|------------------------------------------------------|    
|------------------------5--3---1--1----51-4-4-4-4-4-4|
|---3--3---3--3---3--3---------------3-----------------|

|---------------------------------------------------|
|---------------------------------------------------|    
|---------------------------------------------------|x2
|5-5-5-5-5-5-5-5-5-5-5-5--6-6-6-6-6-6-3-3-3-3-3-3---|

|-------------------------------------------------------------------------|
|-------------------------------------------------------------------------| 	
|-------------------------------------------------------------------------|
|0-0-0-0-0-0-0-0-0-0-0-0--1-1-1-1-1-1-1-1-1-1-1-1--3-3-3-3-3-3-3-3-3-3-3-3|

|----------------------------|
|----------------------------| 	
|----------------------------|
|0-0-0-0-0-0-0-0-0-0-0-0-----|








|-----------------------------------------------|
|-----------------------------------------------| 	
|5-55-5-5-5----5-55-5-5-5---5---87-4444-4-4-|
|-----------------------------------------------|

|-----------------------------------------------------| Repeat Both Twice
|-----------------------------------------------------| 	
|5-55-5-5-5----5-55-5-5-5---5---87/-121212-12-12-12|
|-----------------------------------------------------|

|----------------------------------------------------------------------------|
|----------------------------------------------------------------------------|     
|----------------------------------------------------------------------------|
|3-3-3-3-3-3-3-3-3-1-1-1---5-5-5-5-5-5-5-5-5-3-3-3-3-3-3-3-3-3-3-3-3-3-3-3--|

|----------------------------|
|----------------------------|     
|----------------------------|
|1-1-1-1-1-1-1-1-1-1-1-1-----| Repeat Both Twice

Then...
|----------------------------------------------------------------------------|
|----------------------------------------------------------------------------|     
|---------------------------------------------------------------0-0-0-0-0-0--|
|5-5-5-5-5-5-5-5-5-3-3-3---3-3-3-3-3-3-3-3-3-3-3-3-0-0-0-0-0-0--------------|

|---------------------------------------------------------------------------------|
|-----------------------5---------------------------------------------------------|     
|5-5-5-5-5-5-5-5-5--7-8-----4-4-4-4-4-4-4-4-47-8-5-8-8-8-8-8-8-8-8-7-8-5--------|
|---------------------------------------------------------------------------------|

|---------------------------------------------------------------------------------|
|-----------------------------------------------5---------------------------------|    
|4-4-4-4-4----------------5-5-5-5-5-5-5-5--5-7-8----4-4-4-4-4-4-4-4-4-7-8-5------|
|----------0-3-3-3-3-3-3----------------------------------------------------------|

|---------------------------| |6-6-6-6-6---0-0-0-0-0-0-|
|---------------------------| |------------------------|
|---------------------------| |------------------------|
|8-8-8-8-8-8-8-8-87-8--10--| |----------0-------------|

|----------------------------------------------------------------------------------|
|----------------------------------------------------------------------------------|     
|----------------------------------------------------------------------------------|
|5-3-3-3-3-3-5-3-3-3-0-3---6-6-6-6-6-6-6-6-6-6-6-6-1-1-1-1-1-1-1-1-1-1-3-1--------|

|-------------------------|
|-------------------------|     
|-------------------------|
|1-0-0-0-0-0-0-0-1-0-5-0--|

|----------------------------------------------------------------------------------|
|----------------------------------------------------------------------------------|     
|----------------------------------------------------------------------------------|
|5-3-3-3-3-3-5-3-3-3-0-3---6-6-6-6-6-6-6-6-6-6-6-6-1-1-1-1-1-1-1-1-1-1-3-1--------|

|-------------------------|
|-------------------------|     
|-------------------------|
|1-0-0-0-0-0-0-0-1-0-0-0--|

|----------------------------------------------------------|
|----------------------------------------------------------|    
|------3-3---------------------------4-4-4-4-4-4-----------|
|-3-3-------3-3-5-5-5----6--6-6--6-------------------------|

|---------------------------------------------------|
|---------------------------------------------------|    
|---------------------------------------------------|x2
|5-5-5-5-5-5-5-5-5-5-5-5--6-6-6-6-6-6-3-3-3-3-3-3---|

|-------------------------------------------------------------------------|
|-------------------------------------------------------------------------| 	
|-------------------------------------------------------------------------|
|0-0-0-0-0-0-0-0-0-0-0-0--1-1-1-1-1-1-1-1-1-1-1-1--3-3-3-3-3-3-3-3-3-3-3-3|


|----------------------------|
|----------------------------| 	
|----------------------------|
|0-0-0-0-0-0-0-0-0-0-0-0-----|

|-----------------------------------------------------|
|-----------------------------------------------------|
|--5-55-5-5-5----5-55-5-5-5----5-55-5-5-5-----44-4-4-4|x4
|------------------------------------------4----------|		

|--------------------------------------------------------------|
|--------------------------------------------------------------|
|--0-00-0-0-0/8----5-55\0-0-----0-00-0-0-0\--------------------|
|-------------------------------------------4---44-4-4-4-------|		

|---------------------------------------------------------------|
|---------------------------------------------------------------|
|--0-00-0-0-0\------------------------0-00-0-0-0/8-----55-5\0---|
|--------------4----4---44-4-4-4-------------------------------4|

|---------------------------------------------------------------|
|---------------------------------------------------------------|
|----------------44-4-4-4-4--------0-00-0-0-0/8-----55-5\0-0----|
|--4-44-4-4-4--4------------------------------------------------|

|---------------------------------------------------------------|
|---------------------------------------------------------------|
|--0-00-0-0-0\------------------------0-00-0-0-0/8-----55-5\0-0-|x6
|--------------4----4---44-4-4-4--------------------------------|

|------------------------------------|
|------------------------------------|
|0-00-0-0-0\-------------------------|
|--------------4-44-4-4-4------------|





Comments


Popular Black Dahlia Murder tabs & chords
Funeral Thirst 3 Bass Tabs
When The Last Grave Has Emptied Bass Tabs
A Vulgar Picture Intro Tabs
Blackest Incarnation Tabs
Carbonized In Cruciform Tabs
Elder Misanthropy 3 Tabs
Hit The Road Tabs
Nocturnal Intro Tabs
Unhallowed Tabs
When The Last Grave Has Emptied 1 Tabs


Song lyrics



↑ Back to top | Tablatures and chords are parodies/interpretations of the original songs. You may use it for private study, scholarship, research or language learning purposes only
© 2014 AZChords.com Contact us | Privacy policy | DMCA | Add/correct tabs | Request tabs | Top 50 tabs