>
 >
Vice Campaign

Vice Campaign Guitar Tabs

Black Dahlia Murder - Vice Campaign chords, tabs, tablatures, lyrics

Guitar lessons | Add/correct | Request | Top 50 tabs Artists:  A B C D E F G H I J K L M N O P Q R S T U V W X Y Z 0-9

Vice Campaign Guitar Tabs – Black Dahlia Murder

CD, Sheet music, Poster

Do you like Vice Campaign? Share with your friends now
Tabs


   Intro [0:02]
   4/4
    Gtr I
      PM|   PM|   PM|   PM|     PM|   PM|   PM|
||--------------------------|---------------------------|
||o-------------------------|---------------------------|
||--------------------------|---------------------------|
||--------------------------|---------------------------|
||o-7-----3-----6-----2-----|-7-----3-----6-------------|
||----0-0---0-0---0-0---0-0-|---0-0---0-0---0-0-7-(7)-3-|
|
|   Gtr II
|     PM|   PM|   PM|   PM|     PM|   PM|   PM|
||--------------------------|---------------------------|
||o-------------------------|---------------------------|
||--------------------------|---------------------------|
||--------------------------|---------------------------|
||o-7-----3-----6-----2-----|-7-----3-----6-----6-(6)-3-|
||----0-0---0-0---0-0---0-0-|---0-0---0-0---0-0---------|


    PM|   PM|   PM|   PM|     PM|   PM|   PM|
|-------------------------|-------------------------------||
|-------------------------|------------------------------o||
|-------------------------|-------------------------------||
|-------------------------|-------------------------------||
|-7-----3-----6-----2-----|-7-----3-----6----------------o||
|---0-0---0-0---0-0---0-0-|---0-0---0-0---0-0-3-(3)-7-----||
|
|   PM|   PM|   PM|   PM|     PM|   PM|   PM|
|-------------------------|-------------------------------||
|-------------------------|------------------------------o||
|-------------------------|-------------------------------||
|-------------------------|-------------------------------||
|-7-----3-----6-----2-----|-7-----3-----6-----3-(3)-6----o||
|---0-0---0-0---0-0---0-0-|---0-0---0-0---0-0-------------||


 Riff A [0:15]
                               PM--------|
|----------------------------|------------------|
|----------------------------|------------------|
|----------------------------|------------------|
|----------------------------|------------------|
|--7-------------------------|-------3-----2----|
|-(0)------------------------|-5-4-1---5-4-0----|
|
|  PM---|   PM|     PM         PM--|   PM|
|----------------------------|------------------|
|----------------------------|------------------|
|----------------------------|------------------|
|----------------------------|------------------|
|---------7-----5h7---7h8-11-|-------7----------|
|--0--0-0---0-0-----0--------|-8-7-5---8-7-4----|


  PM--|   PM|     PM         PM----------------|
|--------------------------|----------------------------|
|--------------------------|----------------------------|
|--------------------------|----------------------------|
|--------------------------|---------------------6h7--9-|
|-------7-----5h7---7h8-11-|----------------------------|
|-0-0-0---0-0-----0--------|-5-5-5-5-8-7-5-4-4-4--------|
|
| PM--|   PM|     PM         PM----------------|
|--------------------------|----------------------------|
|--------------------------|----------------------------|
|--------------------------|----------------------------|
|--------------------------|----------------------------|
|-------7-----5h7---7h8-11-|---------------------7h8-11-|
|-0-0-0---0-0-----0--------|-5-5-5-5-8-7-5-4-4-4--------|


  PM--|   PM|     PM-----|      PM|           PM|
|--------------------------|-----------------------------|
|--------------------------|-----------------------------|
|--------------------------|-----------------------------|
|--------------------------|-----------------------------|
|-------7-----5h7---8------|-5------10s7----7-----3S6-6--|
|-0-0-0---0-0-----0---10-8-|----7-5--8s5-0----0-0-1S4-4--|
|
| PM--|   PM|     PM-----|      PM|           PM|
|--------------------------|-----------------------------|
|--------------------------|-----------------------------|
|--------------------------|-----------------------------|
|--------------------------|-----------------------------|
|-------7-----5h7---8------|-8------10s7---11-----3S6-6--|
|-0-0-0---0-0-----0---10-8-|---10-8--8s5-0----0-0-1S4-4--|


  PM--|   PM|     PM         PM--------------|
|--------------------------|--------------------------|
|--------------------------|--------------------------|
|--------------------------|--------------------------|
|--------------------------|-------------------6h7--9-|
|-------7-----5h7---7h8-11-|--------------------------|
|-0-0-0---0-0-----0--------|-5-5-5-8-7-5-4-4-4--------|
|
| PM--|   PM|     PM         PM--------------|
|--------------------------|--------------------------|
|--------------------------|--------------------------|
|--------------------------|--------------------------|
|--------------------------|--------------------------|
|-------7-----5h7---7h8-11-|-------------------7h8-11-|
|-0-0-0---0-0-----0--------|-5-5-5-8-7-5-4-4-4--------|


  PM--|   PM|     PM-----|      PM|   PM|    PM|
|--------------------------|-----------------------------|
|--------------------------|-----------------------------|
|--------------------------|-----------------------------|
|--------------------------|-----------------------------|
|-------7-----5h7---8------|-5------3------7-----3S6-6---|
|-0-0-0---0-0-----0---10-8-|----5-0---5-0----0-0-1S4-4---|
|
| PM--|   PM|     PM-----|        PM    PM   PM|
|--------------------------|-----------------------------|
|--------------------------|-----------------------------|
|--------------------------|-----------------------------|
|--------------------------|-----------------------------|
|-------7-----5h7---8------|-8h10---------11-------------|
|-0-0-0---0-0-----0---10-8-|------0-8p5-0----0-0-1h4-4---|


 Riff B [0:31]
  Gtrs I, II
                          PM-|
|-------------------------------|
|-------------------------------|
|-------------------------------|
|-------------------------------|
|-3-3-3-3-3-3-3-3-3-3-3-3-7--9--|
|-------------------------5--7--|


  Gtr I
|-----------------------------------------------------|
|-----------------------------------------------------|
|-----------------------------------------------------|
|-----------------------------------------------------|
|-------------7-7-7-7-3-3-10-10-10-10-9-9-6-6-6-6-6-6-|
|-0-0-0-0-0-0-----------------------------------------|
|
| Gtr II
|-----------------------------------------------------|
|-----------------------------------------------------|
|-----------------------------------------------------|
|-----------------------------------------------------|
|-------------7-7-7-7-3-3--7--7--7--7-6-6-3-3-3-3-6-6-|
|-0-0-0-0-0-0-----------------------------------------|


                                              PM
|--------------------------------------------------|
|--------------------------------------------------|
|--------------------------------------------------|
|--------------------------------------------------|
|--------------------------------------------------|
|-8-8-8-8-8-8-8-8-8-8-8-8-5-5-5-5-5-5-7-7-7-7-0----|
|
|                                             PM
|--------------------------------------------------|
|--------------------------------------------------|
|--------------------------------------------------|
|--------------------------------------------------|
|-7-7-7-7-7-7-7-7-7-7-7-7-3-3-3-3-3-3-6-6-6-6------|
|---------------------------------------------0----|


       PM    PM     PM
|-----------------------------|
|-----------------------------|
|-----------------------------|
|--9p5---7p4----------------7-|
|--------------7h10----6p=3---|
|------0-----0------0---------|
|
|      PM    PM     PM      PM
|-----------------------------|
|-----------------------------|
|-----------------------------|
|---------------------10h12---|
|-10p7---9p6---7h10---------0-|
|------0-----0------0---------|


|--------------------------------------------------|
|--------------------------------------------------|
|--------------------------------------------------|
|--------------------------------------------------|
|-3-3-3-3-3-3-3-3-3-3-3-3--------------------------|
|-------------------------5-5-5-5-5-5-7-7-7-7-7-7--|
|
|--------------------------------------------------|
|--------------------------------------------------|
|--------------------------------------------------|
|--------------------------------------------------|
|-3-3-3-3-3-3-3-3-3-3-3-3--------------------------|
|-------------------------5-5-5-5-5-5-7-7-7-7-7-7--|


|-----------------------------------------------------|
|-----------------------------------------------------|
|-----------------------------------------------------|
|-----------------------------------------------------|
|-------------------------10-10-10-10-9-9-6-6-6-6-6-6-|
|-0-0-0-0-0-0-0-0-0-0-0-0-----------------------------|
|
|-----------------------------------------------------|
|-----------------------------------------------------|
|-----------------------------------------------------|
|-----------------------------------------------------|
|--------------------------7--7--7--7-6-6-3-3-3-3-6-6-|
|-0-0-0-0-0-0-0-0-0-0-0-0-----------------------------|


|--------------------------------|
|--------------------------------|
|--------------------------------|
|-------------------------7--3---|
|-------------------------7--3---|
|-8-8-8-8-8-8-8-8-8-8-8-8-5--1---|
|
|--------------------------------|
|--------------------------------|
|--------------------------------|
|-------------------------7--3---|
|-7-7-7-7-7-7-7-7-7-7-7-7-7--3---|
|-------------------------5--1---|


 Riff A [0:43]


 Riff C [0:56]
  PM--|    PM  PM--|         PM--|   PM  PM----|
|--------------------------|-------------------------|
|--------------------------|-------------------------|
|--------------------------|-------------------------|
|--------9---5-------4h5p4-|---------------------5h7-|
|--------------------------|-------3---2-------3-----|
|-0-0-0----0---0-0-0-------|-0-0-0---0---0-0-0-------|
|
| PM--|    PM  PM--|         PM--|   PM  PM----|
|--------------------------|-------------------------|
|--------------------------|-------------------------|
|--------------------------|-------------------------|
|--------------------------|-------------------------|
|-------10---7-------5h7p5-|---------------------7h8-|
|-0-0-0----0---0-0-0-------|-0-0-0-5-0-4-0-0-0-5-----|


  PM--|    PM  PM--|         PM--|   PM  PM----|
|--------------------------|----------------------------|
|--------------------------|----------------------------|
|--------------------------|----------------------------|
|--------9---5-------4h5p4-|--------------------7p5p4---|
|--------------------------|-------3---2----------------|
|-0-0-0----0---0-0-0-------|-0-0-0---0---0-0-0----------|
|
| PM--|    PM  PM--|         PM--|   PM  PM----|
|--------------------------|----------------------------|
|--------------------------|----------------------------|
|--------------------------|----------------------------|
|--------------------------|----------------------------|
|-------10---7-------5h7p5-|-------------------10p7p6---|
|-0-0-0----0---0-0-0-------|-0-0-0-5-0-4-0-0-0----------|


 Chorus [1:03]
 8/4
  PM--|                PM--|
|--------------------------------------------------------------|
|--------------------------------------------------------------|
|--------------------------------------------------------------|
|--------------------------------------------------------------|
|----------7h=9--9--9---------9h10-10-10--9--9--9--7--7--7-6-6-|
|-0-0--5---------------0-0-0-----------------------------------|
|
| PM--|                PM--|
|--------------------------------------------------------------|
|--------------------------------------------------------------|
|--------------------------------------------------------------|
|--------------------------------------------------------------|
|------0--10h12-12-12--------12h14-14-14-12-12-12-10-10-10-9-9-|
|-0-0-(0)--------------0-0-0-----------------------------------|


  PM--|              PM--|    PM|    PM|    PM|
|-----------------------------------------------------|
|-----------------------------------------------------|
|-----------------------------------------------------|
|--------------------------12-----10------9-----------|
|-------10h12-12-12-----------------------------10\---|
|-8-8-8--------------8-8-8----8-8----8-8----8-8-------|
|
| PM--|              PM--|    PM|    PM|    PM|
|-----------------------------------------------------|
|-----------------------------------------------------|
|-----------------------------------------------------|
|--------9h10-10-10---------9--------------------9----|
|---------------------------------12-----10-----------|
|-8-8-8--------------8-8-8----8-8----8-8----8-8-------|


  PM--|                PM--|
|--------------------------------------------------------------|
|--------------------------------------------------------------|
|--------------------------------------------------------------|
|--------------------------------------------------------------|
|----------7h=9--9--9---------9h10-10-10--9--9--9--7--7--7-6-6S|
|-0-0--5---------------0-0-0-----------------------------------|
|
| PM--|                PM--|
|--------------------------------------------------------------|
|--------------------------------------------------------------|
|--------------------------------------------------------------|
|--------------------------------------------------------------|
|------0--10h12-12-12--------12h14-14-14-12-12-12-10-10-10-9-9-|
|-0-0-(0)--------------0-0-0-----------------------------------|


    ~~~           ~     PM---|
|----------------------------------|
|----------------------------------|
|----------------------------------|
|------------------------------7---|
|--12----10-12-10-6-----7-10-9---9-|
|----------------------------------|
|
|   ~~~   PM---|  ~     PM---|
|----------------------------------|
|----------------------------------|
|----------------------------------|
|-/10-----9-10--9------10--9-7-----|
|-----------------9------------9-6-|
|----------------------------------|


  PM--|                PM--|
|--------------------------------------------------------------|
|--------------------------------------------------------------|
|--------------------------------------------------------------|
|--------------------------------------------------------------|
|----------7h=9--9--9---------9h10-10-10--9--9--9--7--7--7-6-6-|
|-0-0--5---------------0-0-0-----------------------------------|
|
| PM--|                PM--|
|--------------------------------------------------------------|
|--------------------------------------------------------------|
|--------------------------------------------------------------|
|--------------------------------------------------------------|
|------0--10h12-12-12--------12h14-14-14-12-12-12-10-10-10-9-9-|
|-0-0-(0)--------------0-0-0-----------------------------------|


  PM--|              PM--|    PM|    PM|    PM|
|------------------------------------------------------|
|------------------------------------------------------|
|------------------------------------------------------|
|--------------------------12-----10------9------------|
|-------10h12-12-12-----------------------------10\----|
|-8-8-8--------------8-8-8----8-8----8-8----8-8--------|
|
| PM--|              PM--|    PM|    PM|    PM|
|------------------------------------------------------|
|------------------------------------------------------|
|------------------------------------------------------|
|--------9h10-10-10---------9--------------------9-----|
|---------------------------------12-----10------------|
|-8-8-8--------------8-8-8----8-8----8-8----8-8--------|


  PM--|                PM--|
|--------------------------------------------------------------|
|--------------------------------------------------------------|
|--------------------------------------------------------------|
|--------------------------------------------------------------|
|----------7h=9--9--9---------9h10-10-10--9--9--9--7--7--7-6-6-|
|-0-0--5---------------0-0-0-----------------------------------|
|
| PM--|                PM--|
|--------------------------------------------------------------|
|--------------------------------------------------------------|
|--------------------------------------------------------------|
|--------------------------------------------------------------|
|------0--10h12-12-12--------12h14-14-14-12-12-12-10-10-10-9-9-|
|-0-0-(0)--------------0-0-0-----------------------------------|


                    PM--|
|------------------------------|
|------------------------------|
|------------------------------|
|--------------10\--------2----|
|-10p9p7-6h7h9------------2----|
|-------------------0-0-0-0----|
|
|                   PM--|
|------------------------------|
|------------------------------|
|---------------5--------------|
|--9p7p5-4h5h7------------2----|
|-------------------------2----|
|-------------------0-0-0-0----|


   Riff D [1:29]
   4/4
    Gtrs I, II
    PM-------------------------------------------------
||--------------------------|-------------------------|
||o-------------------------|-------------------------|
||--------------------------|-------------------------|
||--------------------------|-------------------------|
||o-------------------------|-------------7-7-7-6-6-6-|
||--8-8-8-8-8-8-8-8-8-5-5-5-|-7-7-7-5-5-5-------------|


                           1.,2.
 -------------------------------------------------|
                                                        3x
|-------------------------|-----------------------------||
|-------------------------|----------------------------o||
|-------------------------|-----------------------------||
|-------------------------|-----------------------------||
|-------------------------|----------------------------o||
|-0-0-0-0-0-0-0-0-0-0-0-0-|-0-0-0-0-0-0-0-0-0-0-0-0-----||


  3.
  Gtr I
  PM--------------|         PM----------------------------------------------|
|------------------------||-------------------------|--------------------------|
|------------------------||-------------------------|--------------------------|
|------------------------||-------------------------|--------------------------|
|------------------------||-------------------------|--------------------------|
|-------------------10\--||-------------------------|-------------------5-5-5--|
|-0-0-0-0-0-0-0-0-0------||-1-1-1-1-1-1-1-1-1-4-4-4-|-5-5-5-4-4-4-1-1-1--------|
|
| Gtr II
| PM--------------|         PM----------------------------------------------|
|------------------------||-------------------------|--------------------------|
|------------------------||-------------------------|--------------------------|
|------------------------||-------------------------|--------------------------|
|------------------------||-------------------------|--------------------------|
|--------------------7\--||-------------------------|-------------------5-5-5--|
|-0-0-0-0-0-0-0-0-0------||-1-1-1-1-1-1-1-1-1-4-4-4-|-5-5-5-4-4-4-1-1-1--------|


   Riff E [1:52]
    Q=145
   Listen to CD or Powertab for rhythm.

   8/4
         PM|  ~~~~~~~~
||---------------------------|
||o--------------------------|
||---------------------------|
||--2------------------------|
||o-2---------8-----7--------|
||--0----0-0--------------7--|
|
|        PM|  ~~~~~~~~
||---------------------------|
||o--------------------------|
||---------------------------|
||--2------------------------|
||o-2--------12----11--------|
||--0----0-0-------------12--|


 1.,2.,3.
         PM------|         PM------|       PM----|
                                                             4x
|------------------------------------------------------------||
|-----------------------------------------------------------o||
|------------------------------------------------------------||
|------------------------------------------------------------||
|-----------------------------------------------------------o||
|--8S=7--7--7--7--7--7S=5--5--5--5--5--5S4-4-4-4-4-4S1-1-1---||
|
|        PM------|         PM------|       PM----|
|                                                            4x
|------------------------------------------------------------||
|-----------------------------------------------------------o||
|------------------------------------------------------------||
|------------------------------------------------------------||
|-----------------------------------------------------------o||
|-13S12-12-12-12-12-12S10-10-10-10-10-10S8-8-8-8-8-8S7-7-5---||

Last time around end with:

  4.
         PM------|         PM------|         PM------|         PM------|
|-------------------------------------------------------------------------|
|-------------------------------------------------------------------------|
|-------------------------------------------------------------------------|
|-------------------------------------------------------------------------|
|-------------------------------------------------------------------------|
|--7S=8--8--8--8--8--8S10-10-10--5-10-10S12-12-12-12-12-12S=7--0--0--0--0-|
|
|        PM------|         PM------|         PM------|         PM------|
|-------------------------------------------------------------------------|
|-------------------------------------------------------------------------|
|-------------------------------------------------------------------------|
|-------------------------------------------------------------------------|
|-------------------------------------------------------------------------|
|-12S13-13-13-13-13-13S15-15-15-15-15-15S17-17-17-17-17-17S12-12-12-12-12-|


 Riff F [2:19]
  Q=205
 4/4
           PM  PM  PM        PM----------------|
|----------------------|-------------------------|
|----------------------|-------------------------|
|----------------------|-------------------------|
|----------------------|-------------------------|
|-11h12p11---7---8---7-|-(7)---------------------|
|----------0---0---0---|-----0-0-0-0-0-0-0-0-0-0-|
|
|----------------------|-------------------------|
|----------------------|-------------------------|
|----------------------|-------------------------|
|--2-------------------|-(2)---------------------|
|--2-------------------|-(2)---------------------|
|--0-------------------|-(0)---------------------|


      PM  PM  PM        PM----------------|
|-----------------|---------------------------|
|-----------------|---------------------------|
|-----------------|---------------------------|
|-------7---6-----|---------------------------|
|---------------8-|-(8)-----------------------|
|-5h8-5---5---5---|-----0-1-1-1-1-1-1-1-1-1---|
|
|     PM  PM  PM          PM--------------|
|-----------------|---------------------------|
|-----------------|---------------------------|
|-----------------|---------------------------|
|-------3---2-----|---------------------------|
|---------------5-|-(5)-----------------------|
|-1h4-1---5---5---|-----0-1-1-1-1-1-1-1-1-1---|


    Gtrs I, II
             PM  PM  PM        PM----------------|
||-----------------------|-------------------------|
||o----------------------|-------------------------|
||-----------------------|-------------------------|
||-----------------------|-------------------------|
||o-11h12p11---7---8---7-|-(7)---------------------|
||-----------0---0---0---|-----0-0-0-0-0-0-0-0-0-0-|


      PM  PM  PM        PM----------------|
|-----------------|--------------------------||
|-----------------|-------------------------o||
|-----------------|--------------------------||
|-------7---6-----|--------------------------||
|---------------8-|-(8)---------------------o||
|-5h8-5---5---5---|-----0-1-1-1-1-1-1-1-1-1--||


    Gtr I
             PM  PM  PM        PM----------------|
||-----------------------|-------------------------|
||o----------------------|-------------------------|
||-----------------------|-------------------------|
||-----------------------|-------------------------|
||o-11h12p11---7---8---7-|-(7)---------------------|
||-----------0---0---0---|-----0-0-0-0-0-0-0-0-0-0-|
|
|   Gtr II
|            PM  PM  PM        PM----------------|
||-----------------------|-------------------------|
||o----------------------|-------------------------|
||-----------------------|-------------------------|
||-----------------------|-------------------------|
||o--7h=8p=7---5---3---2-|-(2)---------------------|
||-----------0---0---0---|-----0-0-0-0-0-0-0-0-0-0-|


      PM  PM  PM        PM----------------|
|-----------------|--------------------------||
|-----------------|-------------------------o||
|-----------------|--------------------------||
|-------7---6-----|--------------------------||
|---------------8-|-(8)---------------------o||
|-5h8-5---5---5---|-----0-1-1-1-1-1-1-1-1-1--||
|
|     PM  PM  PM          PM--------------|
|-----------------|--------------------------||
|-----------------|-------------------------o||
|-----------------|--------------------------||
|-------3---2-----|--------------------------||
|---------------5-|-(5)---------------------o||
|-1h4-1---5---5---|-----0-1-1-1-1-1-1-1-1-1--||


   Riff G.1 [2:42]
    Q=215
    Gtrs I, II
||----------------------------------|---------------------------------|
||o---------------------------------|---------------------------------|
||----------------------------------|---------------------------------|
||----------------------------------|---------------------------------|
||o---------------------------------|---------3-3-3-3-----------------|
||--5-5-5-5-4-4-4-4-1-1-1-1-1-1-1-1-|-1-1-1-1---------5-5-5-5-4-4-4-4-|


|---------------------------------|-----------------------------------||
|---------------------------------|----------------------------------o||
|---------------------------------|-----------------------------------||
|---------------------------------|-----------------------------------||
|---------------------------------|----------------------------------o||
|-5-5-5-5-4-4-4-4-0-0-0-0-0-0-0-0-|-0-0-0-0-0-0-0-0-0-0-0-0-0-0-0-0---||


    Gtr I
||----------------------------------|---------------------------------|
||o---------------------------------|---------------------------------|
||----------------------------------|---------------------------------|
||----------------------------------|---------------------------------|
||o---------------------------------|---------3-3-3-3-----------------|
||--5-5-5-5-4-4-4-4-1-1-1-1-1-1-1-1-|-1-1-1-1---------5-5-5-5-4-4-4-4-|
|
|   Gtr II
||----------------------------------|---------------------------------|
||o---------------------------------|---------------------------------|
||----------------------------------|---------------------------------|
||----------------------------------|---------------------------------|
||o---------------------------------|---------7-7-7-7-----------------|
||--8-8-8-8-7-7-7-7-5-5-5-5-5-5-5-5-|-5-5-5-5---------8-8-8-8-7-7-7-7-|


                                   1.
|---------------------------------|-----------------------------------||
|---------------------------------|----------------------------------o||
|---------------------------------|-----------------------------------||
|---------------------------------|-----------------------------------||
|---------------------------------|----------------------------------o||
|-5-5-5-5-4-4-4-4-0-0-0-0-0-0-0-0-|-0-0-0-0-0-0-0-0-0-0-0-0-0-0-0-0---||
|
|---------------------------------|-----------------------------------||
|---------------------------------|----------------------------------o||
|---------------------------------|-----------------------------------||
|---------------------------------|-----------------------------------||
|---------------------------------|----------------------------------o||
|-8-8-8-8-7-7-7-7-4-4-4-4-4-4-4-4-|-4-4-4-4-4-4-4-4-4-4-4-4-4-4-4-4---||


  2.
                                   2/4
                                    \2
|---------------------------------|-------|
|---------------------------------|-------|
|---------------------------------|-------|
|---------------------------------|-------|
|---------------------------------|-6-----|
|-1-1-1-1-1-1-1-1-4-4-4-4-4-4-4-4-|-4-----|
|
|                                   \2
|---------------------------------|-------|
|---------------------------------|-------|
|---------------------------------|-------|
|---------------------------------|-------|
|---------------------------------|-6-----|
|-5-5-5-5-5-5-5-5-7-7-7-7-0-------|-4-----|


   Riff G.2 [3:00]

   Add a short pause after the 1's.

   4/4
    Gtrs I, II
                    PM------------|
||----------------------------------|---------------------------|
||o---------------------------------|---------------------------|
||----------------------------------|---------------------------|
||----------------------------------|---------------------------|
||o---------------------------------|---3-3-3-3-----------------|
||--5-5-5-5-4-4-4-4-1-1-1-1-1-1-1-1-|-----------5-5-5-5-4-4-4-4-|


                                                                      3x
|---------------------------------|-----------------------------------||
|---------------------------------|----------------------------------o||
|---------------------------------|-----------------------------------||
|---------------------------------|-----------------------------------||
|---------------------------------|----------------------------------o||
|-5-5-5-5-4-4-4-4-0-0-0-0-0-0-0-0-|-0-0-0-0-0-0-0-0-0-0-0-0-0-0-0-0---||


Lead guitar comes in on last time:

  Gtrs I, II
                   PM------------|
|----------------------------------|----------------------------------|
|----------------------------------|----------------------------------|
|----------------------------------|----------------------------------|
|----------------------------------|----------------------------------|
|----------------------------------|-------3-3-3-3--------------------|
|--5-5-5-5-4-4-4-4-1-1-1-1-1-1-1-1-|---------------5-5-5-5--4--4--4-4-|
|
| Gtr III
|-16-------------------------------|--(16)-----------------13h16p13---|
|----------------------------------|----------------------------------|
|----------------------------------|----------------------------------|
|----------------------------------|----------------------------------|
|----------------------------------|----------------------------------|
|----------------------------------|----------------------------------|


                                     PM--|   PM--|
|----------------------------------|-------------------|
|----------------------------------|-------------------|
|----------------------------------|-------------------|
|----------------------------------|-------------------|
|----------------------------------|-------------------|
|--5-5-5-5-4-4-4-4-0-0-0-0-0-0-0-0-|-0-0-0---0-0-0-----|
|
|-12-------------------------------|-------------------|
|----------------------------------|-------------------|
|----------------------------------|-------------------|
|----------------------------------|-------------------|
|----------------------------------|-------------------|
|----------------------------------|-------------------|


 Riff C [3:19]
    Q=150

   Note that the riff ends like the first time only the last time around


 Chorus [3:32]


 Outro [3:55]
 4/4
    PM|   PM|   PM|            PM----|
|----------------------------|--------------*|
|----------------------------|--------------*|
|----------------------------|--------------*|
|--------------------------5-|--------------*|
|-7-----3-----6-----2--(2)---|-2-2-2-2------*|
|---0-0---0-0---0-0----------|-0-0-0-0------*|
|
|   PM|   PM|   PM|            PM----|
|----------------------------|--------------*|
|----------------------------|--------------*|
|----------------------------|--------------*|
|----------------------------|--------------*|
|-7-----3-----6-----6\-------|-2-2-2-2------*|
|---0-0---0-0---0-0----------|-0-0-0-0------*|


Tablature Legend
----------------
 h   - hammer-on
 p   - pull-off
 b   - bend
 pb  - pre-bend
 r   - bend release (if no number after the r, then release immediately)
 /\  - slide into or out of (from/to "nowhere")
 s   - legato slide
 S   - shift slide
  - natural harmonic
[n]  - artificial harmonic
n(n) - tapped harmonic
 ~   - vibrato
 tr  - trill
 T   - tap
 TP  - trem. picking
 PM  - palm muting
\n/  - tremolo bar dip; n = amount to dip
 \n  - tremolo bar down
 n/  - tremolo bar up
/n\  - tremolo bar inverted dip
 =   - hold bend; also acts as connecting device for hammers/pulls
 <>  - volume swell (louder/softer)
 x   - on rhythm slash represents muted slash
 o   - on rhythm slash represents single note slash





Comments


Popular Black Dahlia Murder tabs & chords
Elder Misanthropy Bass Tabs
Statutory Ape Bass Tabs
Statutory Ape 2 Bass Tabs
Closed Casket Requiem 1 Tabs
Deathmask Divine Tabs
I Worship Only What You Bleed Intro Tabs
Nocturnal Tabs
Paint It Black Tabs
Paint It Black 1 Tabs
What A Horrible Night Tabs


Song lyrics



↑ Back to top | Tablatures and chords are parodies/interpretations of the original songs. You may use it for private study, scholarship, research or language learning purposes only
© 2014 AZChords.com Contact us | Privacy policy | DMCA | Add/correct tabs | Request tabs | Top 50 tabs