» » »

Oh Please Tabs (ver.1)

Artists:  A B C D E F G H I J K L M N O P Q R S T U V W X Y Z # 

Oh Please Tabs (ver.1)

Black Dahlia Murder
Rating:
0/5 (0 votes)

Hard to play? Try these video lessons and learn fast.
                Band- Black Dahlia Murder
Song- Oh Please

Intro:
Rythm:
  E5                C5                G5                B5
|-----------------|-----------------|-----------------|-----------------|
|-----------------|-----------------|-----------------|-----------------|
|-----------------|-5---------------|-----------------|-4---------------|
|-2---------------|-5---------------|-5---------------|-4---------------|
|-2---------------|-3---------------|-5---------------|-2---------------|
|-0---------------|-----------------|-3---------------|-----------------|
  1 + 2 + 3 + 4 +   1 + 2 + 3 + 4 +   1 + 2 + 3 + 4 +   1 + 2 + 3 + 4 + 

  E5                C5                G5                B5
|-----------------|-----------------|-----------------|-----------------|
|-----------------|-----------------|-----------------|-----------------|
|-----------------|-5---------------|-----------------|-4---------------|
|-2---------------|-5---------------|-5---------------|-4---------------|
|-2---------------|-3---------------|-5---------------|-2---------------|
|-0---------------|-----------------|-3---------------|-----------------|
  1 + 2 + 3 + 4 +   1 + 2 + 3 + 4 +   1 + 2 + 3 + 4 +   1 + 2 + 3 + 4 + 

Lead:

|-----------------|-----------------|-----------------|-----------------|
|-----------------|-----------------|-----------------|-----------------|
|12-8---8-8---8---|12-8---8-8---8---|12-8---8-8---8---|-12b-12b-12b-8~~~|
|-----12----------|-----12----------|-----12----------|-----------------|
|-----------------|-----------------|-----------------|-----------------|
|-----------------|-----------------|-----------------|-----------------|
  1 + 2 + 3 + 4 +   1 + 2 + 3 + 4 +   1 + 2 + 3 + 4 +   1 + 2 + 3 + 4 +


|-----------------|-----------------|-----------------|-----------------|
|-----------------|-----------------|-----------------|-----------------|
|12-8---8-8---8---|12-8---8-8---8---|12-8---8-8---8---|-12b-12b-12b-8~~~|
|-----12----------|-----12----------|-----12----------|-----------------|
|-----------------|-----------------|-----------------|-----------------|
|-----------------|-----------------|-----------------|-----------------|
  1 + 2 + 3 + 4 +   1 + 2 + 3 + 4 +   1 + 2 + 3 + 4 +   1 + 2 + 3 + 4 + 

Chours:
Both guitars:
  E                 C                 G                 B
|-----------------|-----------------|-----------------|----------------|----------------|
|-----------------|-----------------|-----------------|----------------|----------------|
|-----------------|-----------------|-----------------|----------------|----------------|
|-2-2-2-2-2-2-2-2-|-1010101010101010|-5-5-5-5-5-5-5-5-|-9-9-9-9-9---9--|-9-9-9-9-9---9--|
|-2-2-2-2-2-2-2-2-|-1010101010101010|-5-5-5-5-5-5-5-5-|-9-9-9-9-9---9--|-9-9-9-9-9---9--|
|-0-0-0-0-0-0-0-0-|-8-8-8-8-8-8-8-8-|-3-3-3-3-3-3-3-3-|-7-7-7-7-7---7--|-7-7-7-7-7---7--|
  1 + 2 + 3 + 4 +   1 + 2 + 3 + 4 +   1 + 2 + 3 + 4 +   1 + 2 + 3 + 4 +  1 + 2 + 3 + 4 + 

  E                 C                 G                 B
|-----------------|-----------------|-----------------|----------------|----------------|
|-----------------|-----------------|-----------------|----------------|----------------|
|-----------------|-----------------|-----------------|----------------|----------------|
|-2-2-2-2-2-2-2-2-|-1010101010101010|-5-5-5-5-5-5-5-5-|-9-9-9-9-9---9--|-9-9-9-9-9---9--|
|-2-2-2-2-2-2-2-2-|-1010101010101010|-5-5-5-5-5-5-5-5-|-9-9-9-9-9---9--|-9-9-9-9-9---9--|
|-0-0-0-0-0-0-0-0-|-8-8-8-8-8-8-8-8-|-3-3-3-3-3-3-3-3-|-7-7-7-7-7---7--|-7-7-7-7-7---7--|
  1 + 2 + 3 + 4 +   1 + 2 + 3 + 4 +   1 + 2 + 3 + 4 +   1 + 2 + 3 + 4 +  1 + 2 + 3 + 4 + 

Verse 1:
Both Guitars:
  G
|-----------------|-----------------|-----------------|-----------------|-----------------|-----------------|
|-----------------|-----------------|-----------------|-----------------|-----------------|-----------------|
|-----------------|-----------------|-----------------|-----------------|-----------------|-----------------|
|-5-5-5-5-5---5---|-5-5-5-5-5---5---|-5-5-5-5-5---5---|-5-5-5-5-5---5---|-5-5-5-5-5---5---|-5-5-5-5-5---5---|
|-5-5-5-5-5---5---|-5-5-5-5-5---5---|-5-5-5-5-5---5---|-5-5-5-5-5---5---|-5-5-5-5-5---5---|-5-5-5-5-5---5---|
|-3-3-3-3-3---3---|-3-3-3-3-3---3---|-3-3-3-3-3---3---|-3-3-3-3-3---3---|-3-3-3-3-3---3---|-3-3-3-3-3---3---|
  1 + 2 + 3 + 4 +   1 + 2 + 3 + 4 +   1 + 2 + 3 + 4 +   1 + 2 + 3 + 4 +   1 + 2 + 3 + 4 +   1 + 2 + 3 + 4 +

Chours:
Both guitars:
  E                 C                 G                 B
|-----------------|-----------------|-----------------|----------------|----------------|
|-----------------|-----------------|-----------------|----------------|----------------|
|-----------------|-----------------|-----------------|----------------|----------------|
|-2-2-2-2-2-2-2-2-|-1010101010101010|-5-5-5-5-5-5-5-5-|-9-9-9-9-9---9--|-9-9-9-9-9---9--|
|-2-2-2-2-2-2-2-2-|-1010101010101010|-5-5-5-5-5-5-5-5-|-9-9-9-9-9---9--|-9-9-9-9-9---9--|
|-0-0-0-0-0-0-0-0-|-8-8-8-8-8-8-8-8-|-3-3-3-3-3-3-3-3-|-7-7-7-7-7---7--|-7-7-7-7-7---7--|
  1 + 2 + 3 + 4 +   1 + 2 + 3 + 4 +   1 + 2 + 3 + 4 +   1 + 2 + 3 + 4 +  1 + 2 + 3 + 4 + 

  E                 C                 G                 B
|-----------------|-----------------|-----------------|----------------|----------------|
|-----------------|-----------------|-----------------|----------------|----------------|
|-----------------|-----------------|-----------------|----------------|----------------|
|-2-2-2-2-2-2-2-2-|-1010101010101010|-5-5-5-5-5-5-5-5-|-9-9-9-9-9---9--|-9-9-9-9-9---9--|
|-2-2-2-2-2-2-2-2-|-1010101010101010|-5-5-5-5-5-5-5-5-|-9-9-9-9-9---9--|-9-9-9-9-9---9--|
|-0-0-0-0-0-0-0-0-|-8-8-8-8-8-8-8-8-|-3-3-3-3-3-3-3-3-|-7-7-7-7-7---7--|-7-7-7-7-7---7--|
  1 + 2 + 3 + 4 +   1 + 2 + 3 + 4 +   1 + 2 + 3 + 4 +   1 + 2 + 3 + 4 +  1 + 2 + 3 + 4 + 

Verse 2:
Both Guitars:
  G
|-----------------|-----------------|-----------------|-----------------|-----------------|-----------------|
|-----------------|-----------------|-----------------|-----------------|-----------------|-----------------|
|-----------------|-----------------|-----------------|-----------------|-----------------|-----------------|
|-5-5-5-5-5---5---|-5-5-5-5-5---5---|-5-5-5-5-5---5---|-5-5-5-5-5---5---|-5-5-5-5-5---5---|-5-5-5-5-5---5---|
|-5-5-5-5-5---5---|-5-5-5-5-5---5---|-5-5-5-5-5---5---|-5-5-5-5-5---5---|-5-5-5-5-5---5---|-5-5-5-5-5---5---|
|-3-3-3-3-3---3---|-3-3-3-3-3---3---|-3-3-3-3-3---3---|-3-3-3-3-3---3---|-3-3-3-3-3---3---|-3-3-3-3-3---3---|
  1 + 2 + 3 + 4 +   1 + 2 + 3 + 4 +   1 + 2 + 3 + 4 +   1 + 2 + 3 + 4 +   1 + 2 + 3 + 4 +   1 + 2 + 3 + 4 +

Chours:
Both guitars:
  E                 C                 G                 B
|-----------------|-----------------|-----------------|----------------|----------------|
|-----------------|-----------------|-----------------|----------------|----------------|
|-----------------|-----------------|-----------------|----------------|----------------|
|-2-2-2-2-2-2-2-2-|-1010101010101010|-5-5-5-5-5-5-5-5-|-9-9-9-9-9---9--|-9-9-9-9-9---9--|
|-2-2-2-2-2-2-2-2-|-1010101010101010|-5-5-5-5-5-5-5-5-|-9-9-9-9-9---9--|-9-9-9-9-9---9--|
|-0-0-0-0-0-0-0-0-|-8-8-8-8-8-8-8-8-|-3-3-3-3-3-3-3-3-|-7-7-7-7-7---7--|-7-7-7-7-7---7--|
  1 + 2 + 3 + 4 +   1 + 2 + 3 + 4 +   1 + 2 + 3 + 4 +   1 + 2 + 3 + 4 +  1 + 2 + 3 + 4 + 

  E                 C                 G                 B
|-----------------|-----------------|-----------------|----------------|----------------|
|-----------------|-----------------|-----------------|----------------|----------------|
|-----------------|-----------------|-----------------|----------------|----------------|
|-2-2-2-2-2-2-2-2-|-1010101010101010|-5-5-5-5-5-5-5-5-|-9-9-9-9-9---9--|-9-9-9-9-9---9--|
|-2-2-2-2-2-2-2-2-|-1010101010101010|-5-5-5-5-5-5-5-5-|-9-9-9-9-9---9--|-9-9-9-9-9---9--|
|-0-0-0-0-0-0-0-0-|-8-8-8-8-8-8-8-8-|-3-3-3-3-3-3-3-3-|-7-7-7-7-7---7--|-7-7-7-7-7---7--|
  1 + 2 + 3 + 4 +   1 + 2 + 3 + 4 +   1 + 2 + 3 + 4 +   1 + 2 + 3 + 4 +  1 + 2 + 3 + 4 + 

Guitar solo
Rythm chords behing the solo:
  E5                C5                G5                B5
|-----------------|-----------------|-----------------|-----------------|
|-----------------|-----------------|-----------------|-----------------|
|-----------------|-5---------------|-----------------|-4---------------|
|-2---------------|-5---------------|-5---------------|-4---------------|
|-2---------------|-3---------------|-5---------------|-2---------------|
|-0---------------|-----------------|-3---------------|-----------------|
  1 + 2 + 3 + 4 +   1 + 2 + 3 + 4 +   1 + 2 + 3 + 4 +   1 + 2 + 3 + 4 + 

  E5                C5                G5                B5
|-----------------|-----------------|-----------------|-----------------|
|-----------------|-----------------|-----------------|-----------------|
|-----------------|-5---------------|-----------------|-4---------------|
|-2---------------|-5---------------|-5---------------|-4---------------|
|-2---------------|-3---------------|-5---------------|-2---------------|
|-0---------------|-----------------|-3---------------|-----------------|
  1 + 2 + 3 + 4 +   1 + 2 + 3 + 4 +   1 + 2 + 3 + 4 +   1 + 2 + 3 + 4 + 

  E5                C5                G5                B5
|-----------------|-----------------|-----------------|-----------------|
|-----------------|-----------------|-----------------|-----------------|
|-----------------|-5---------------|-----------------|-4---------------|
|-2---------------|-5---------------|-5---------------|-4---------------|
|-2---------------|-3---------------|-5---------------|-2---------------|
|-0---------------|-----------------|-3---------------|-----------------|
  1 + 2 + 3 + 4 +   1 + 2 + 3 + 4 +   1 + 2 + 3 + 4 +   1 + 2 + 3 + 4 + 

  E5                C5                G5                B5
|-----------------|-----------------|-----------------|-----------------|
|-----------------|-----------------|-----------------|-----------------|
|-----------------|-5---------------|-----------------|-4---------------|
|-2---------------|-5---------------|-5---------------|-4---------------|
|-2---------------|-3---------------|-5---------------|-2---------------|
|-0---------------|-----------------|-3---------------|-----------------|
  1 + 2 + 3 + 4 +   1 + 2 + 3 + 4 +   1 + 2 + 3 + 4 +   1 + 2 + 3 + 4 + 

  E5                C5                G5                B5
|-----------------|-----------------|-----------------|-----------------|
|-----------------|-----------------|-----------------|-----------------|
|-----------------|-5---------------|-----------------|-4---------------|
|-2---------------|-5---------------|-5---------------|-4---------------|
|-2---------------|-3---------------|-5---------------|-2---------------|
|-0---------------|-----------------|-3---------------|-----------------|
  1 + 2 + 3 + 4 +   1 + 2 + 3 + 4 +   1 + 2 + 3 + 4 +   1 + 2 + 3 + 4 + 

  E5                C5                G5                B5
|-----------------|-----------------|-----------------|-----------------|
|-----------------|-----------------|-----------------|-----------------|
|-----------------|-5---------------|-----------------|-4---------------|
|-2---------------|-5---------------|-5---------------|-4---------------|
|-2---------------|-3---------------|-5---------------|-2---------------|
|-0---------------|-----------------|-3---------------|-----------------|
  1 + 2 + 3 + 4 +   1 + 2 + 3 + 4 +   1 + 2 + 3 + 4 +   1 + 2 + 3 + 4 + 

Chours:
Both guitars:
  E                 C                 G                 B
|-----------------|-----------------|-----------------|----------------|----------------|
|-----------------|-----------------|-----------------|----------------|----------------|
|-----------------|-----------------|-----------------|----------------|----------------|
|-2-2-2-2-2-2-2-2-|-1010101010101010|-5-5-5-5-5-5-5-5-|-9-9-9-9-9---9--|-9-9-9-9-9---9--|
|-2-2-2-2-2-2-2-2-|-1010101010101010|-5-5-5-5-5-5-5-5-|-9-9-9-9-9---9--|-9-9-9-9-9---9--|
|-0-0-0-0-0-0-0-0-|-8-8-8-8-8-8-8-8-|-3-3-3-3-3-3-3-3-|-7-7-7-7-7---7--|-7-7-7-7-7---7--|
  1 + 2 + 3 + 4 +   1 + 2 + 3 + 4 +   1 + 2 + 3 + 4 +   1 + 2 + 3 + 4 +  1 + 2 + 3 + 4 + 

  E                 C                 G                 B
|-----------------|-----------------|-----------------|----------------|----------------|
|-----------------|-----------------|-----------------|----------------|----------------|
|-----------------|-----------------|-----------------|----------------|----------------|
|-2-2-2-2-2-2-2-2-|-1010101010101010|-5-5-5-5-5-5-5-5-|-9-9-9-9-9---9--|-9-9-9-9-9---9--|
|-2-2-2-2-2-2-2-2-|-1010101010101010|-5-5-5-5-5-5-5-5-|-9-9-9-9-9---9--|-9-9-9-9-9---9--|
|-0-0-0-0-0-0-0-0-|-8-8-8-8-8-8-8-8-|-3-3-3-3-3-3-3-3-|-7-7-7-7-7---7--|-7-7-7-7-7---7--|
  1 + 2 + 3 + 4 +   1 + 2 + 3 + 4 +   1 + 2 + 3 + 4 +   1 + 2 + 3 + 4 +  1 + 2 + 3 + 4 + 

  E                 C                 G                 B
|-----------------|-----------------|-----------------|----------------|----------------|
|-----------------|-----------------|-----------------|----------------|----------------|
|-----------------|-----------------|-----------------|----------------|----------------|
|-2-2-2-2-2-2-2-2-|-1010101010101010|-5-5-5-5-5-5-5-5-|-9-9-9-9-9---9--|-9-9-9-9-9---9--|
|-2-2-2-2-2-2-2-2-|-1010101010101010|-5-5-5-5-5-5-5-5-|-9-9-9-9-9---9--|-9-9-9-9-9---9--|
|-0-0-0-0-0-0-0-0-|-8-8-8-8-8-8-8-8-|-3-3-3-3-3-3-3-3-|-7-7-7-7-7---7--|-7-7-7-7-7---7--|
  1 + 2 + 3 + 4 +   1 + 2 + 3 + 4 +   1 + 2 + 3 + 4 +   1 + 2 + 3 + 4 +  1 + 2 + 3 + 4 + 

  E                 C                 G                 B
|-----------------|-----------------|-----------------|----------------|----------------|
|-----------------|-----------------|-----------------|----------------|----------------|
|-----------------|-----------------|-----------------|----------------|----------------|
|-2-2-2-2-2-2-2-2-|-1010101010101010|-5-5-5-5-5-5-5-5-|-9-9-9-9-9---9--|-9-9-9-9-9---9--|
|-2-2-2-2-2-2-2-2-|-1010101010101010|-5-5-5-5-5-5-5-5-|-9-9-9-9-9---9--|-9-9-9-9-9---9--|
|-0-0-0-0-0-0-0-0-|-8-8-8-8-8-8-8-8-|-3-3-3-3-3-3-3-3-|-7-7-7-7-7---7--|-7-7-7-7-7---7--|
  1 + 2 + 3 + 4 +   1 + 2 + 3 + 4 +   1 + 2 + 3 + 4 +   1 + 2 + 3 + 4 +  1 + 2 + 3 + 4 + 

Outro:
Rythm:
  E5                C5                G5                B5
|-----------------|-----------------|-----------------|-----------------|
|-----------------|-----------------|-----------------|-----------------|
|-----------------|-5---------------|-----------------|-4---------------|
|-2---------------|-5---------------|-5---------------|-4---------------|
|-2---------------|-3---------------|-5---------------|-2---------------|
|-0---------------|-----------------|-3---------------|-----------------|
  1 + 2 + 3 + 4 +   1 + 2 + 3 + 4 +   1 + 2 + 3 + 4 +   1 + 2 + 3 + 4 + 

  E5                C5                G5                B5
|-----------------|-----------------|-----------------|-----------------|
|-----------------|-----------------|-----------------|-----------------|
|-----------------|-5---------------|-----------------|-4---------------|
|-2---------------|-5---------------|-5---------------|-4---------------|
|-2---------------|-3---------------|-5---------------|-2---------------|
|-0---------------|-----------------|-3---------------|-----------------|
  1 + 2 + 3 + 4 +   1 + 2 + 3 + 4 +   1 + 2 + 3 + 4 +   1 + 2 + 3 + 4 + 

Lead:

|-----------------|-----------------|-----------------|-----------------|
|-----------------|-----------------|-----------------|-----------------|
|12-8---8-8---8---|12-8---8-8---8---|12-8---8-8---8---|-12b-12b-12b-8~~~|
|-----12----------|-----12----------|-----12----------|-----------------|
|-----------------|-----------------|-----------------|-----------------|
|-----------------|-----------------|-----------------|-----------------|
  1 + 2 + 3 + 4 +   1 + 2 + 3 + 4 +   1 + 2 + 3 + 4 +   1 + 2 + 3 + 4 +


|-----------------|-----------------|-----------------|-----------------|
|-----------------|-----------------|-----------------|-----------------|
|12-8---8-8---8---|12-8---8-8---8---|12-8---8-8---8---|-12b-12b-12b-8~~~|
|-----12----------|-----12----------|-----12----------|-----------------|
|-----------------|-----------------|-----------------|-----------------|
|-----------------|-----------------|-----------------|-----------------|
  1 + 2 + 3 + 4 +   1 + 2 + 3 + 4 +   1 + 2 + 3 + 4 +   1 + 2 + 3 + 4 +
            
Hard to play? Try these video lessons and learn fast. | Correct




comments powered by Disqus
↑ Back to top | Tablatures and chords are parodies/interpretations of the original songs. You may use it for private study, scholarship, research or language learning purposes only