» » »

Funeral Thirst Bass tabs (ver.2)

Artists:  A B C D E F G H I J K L M N O P Q R S T U V W X Y Z # 

Funeral Thirst Bass tabs (ver.2)

Black Dahlia Murder
Rating:
0/5 (0 votes)

Hard to play? Try these video lessons and learn fast.
                Tunning: Drop C (C,G,C,F)


for those of you who know this song its played fairly fast so have fun playing this 
and enjoy.


   INTRO
F|----------------------------------------------------|
C|----------------------------------------------------| x4
G|---5--5--5--1--1--0h4-------------------------------|
C|----0--0--0--0--0-----------------------------------|


   vERSE I
F|----------------------------------------------------|
C|----------------------------------------------------| x4
G|---5--5--8--7--7--7--4--4--8--5--5--7---------------|
C|----0--0--0--0--0--0--0--0--0--0--0--0--------------|

F|---------------------------------------------------------|
C|---------------------------------------------------------| x2
G|-------------------------------------------------4h0-----|
C|-8/5\7/5\7/10\8/5\7/5-00---8/5\7/5\7/10\8/5\7/5-----4/1--|

F|----------------------------------------------------|
C|----------------------------------------------------| x4
G|---5--5--8--7--7--7--4--4--8--5--5--7---------------|
C|----0--0--0--0--0--0--0--0--0--0--0--0--------------|

F|---------------------------------------------------------|
C|---------------------------------------------------------|
G|-------------------------------------------------4h0-----|
C|-8/5\7/5\7/10\8/5\7/5-00---8/5\7/5\7/10\8/5\7/5-----4/1--|

F|------------------------------------------------------|
C|------------------------------------------------------|
G|------------------------------------------------------|
C|-8/5\7/5\7/10\8/5\7/5-00---8/5\7/5\7/10\8/5\7/5-------|

F|------------------------------------|
C|------------------------------------|
G|--101010/888/777/4------------------|
C|------------------------------------|


  Verse II
F|------------------------------------------------------------------|
C|------------------------------------------------------------------|
G|--------8h7/55\7h8---------------------------8h7/55\7h8-----------|
C|-000000------------000000-8h7/55\7h8--000000----------------------|

F|------------------------------------|
C|------------------------------------| x2
G|--101010/888/777/4------------------|
C|------------------------------------|

  Verse III
F|---------------------------------------------|
C|---------------------------------------------| x2
G|---------------------------------------------|
C|---888--101010--000000--888--101010--8-6-4---|

F|------------------------------------------------------|
C|------------------------------------------------------| x2
G|--------------------------------------------5--5h4-/1-|
C|-1-0000-1-0000--1/444\1-0--1-0000-1-0000--0-----------|

   Under solo
Part A.
F|-------------------------------------------------|
C|-------------------------------------------------| x2
G|-------------------------------------------------|
C|-888888--555555--000000--888888--555555--000000--|

Part B.
F|------------------------------------|
C|------------------------------------|x5
G|------------------------87h10-------|
C|--8h10-000000-8h5h7-000-87h10-------|
                          ss s

   Breakdown
F|------------------------------------|
C|------------------------------------|x2
G|------------------------------------|
C|-0-0-5h8h7-0-0-3h5h2----------------|

F|------------------------------------|
C|------------------------------------|x3
G|------------------------------------|
C|-0000000-5h8h7-0000000-3h5h2--------|

    Verse IV
F|---------------------------------------------------------|
C|---------------------------------------------------------|
G|-------------------------------------------------4h0-----|
C|-8/5\7/5\7/10\8/5\7/5-00---8/5\7/5\7/10\8/5\7/5-----4/1--|

F|----------------------------*|-----------|
C|----------------------------*|-----------|
G|-------------------------x2-*|-----------|
C|-8/5\7/5\7/10\8/5\7/5-00----*|-0-5-3-1-0-|
                               (under drums)
  Verse II
F|------------------------------------------------------------------|
C|------------------------------------------------------------------|
G|--------8h7/55\7h8---------------------------8h7/55\7h8-----------|
C|-000000------------000000-8h7/55\7h8--000000----------------------|

F|------------------------------------|
C|------------------------------------| x2
G|--101010/888/777/4------------------|
C|------------------------------------|

  Verse III
F|---------------------------------------------|
C|---------------------------------------------| x2
G|---------------------------------------------|
C|---888--101010--000000--888--101010--8-6-4---|

F|------------------------------------------------------|
C|------------------------------------------------------|
G|--------------------------------------------5--5h4-/1-|
C|-1-0000-1-0000--1/444\1-0--1-0000-1-0000--0-----------|

F|----------------------------------------------------------------|
C|----------------------------------------------------------------|
G|--------------------------------------------5--5h4-/1~----------|
C|-1-0000-1-0000--1/444\1-0--1-0000-1-0000--0------------8h7-5-00-|

legend

Slide up- \
slide down- /
Hold- ~
hammer- h
strum- s

*thats it, I hope you like it!*
            
Hard to play? Try these video lessons and learn fast. | Correct




comments powered by Disqus
↑ Back to top | Tablatures and chords are parodies/interpretations of the original songs. You may use it for private study, scholarship, research or language learning purposes only