>
 >
Funeral Thirst

Funeral Thirst Guitar Tabs

Black Dahlia Murder - Funeral Thirst chords, tabs, tablatures, lyrics

Guitar lessons | Add/correct | Request | Top 50 tabs Artists:  A B C D E F G H I J K L M N O P Q R S T U V W X Y Z 0-9

Funeral Thirst Guitar Tabs – Black Dahlia Murder

CD, Sheet music, Poster

Do you like Funeral Thirst? Share with your friends now
Bass TabsBass Tabs v2Bass Tabs v3TabsTabs v2Tabs v3
Tuning, Drop C, C,g,c,f,a,d

Riff 1 2x
|----------------------------------------|
|----------------------------------------|
|----------------------------------------|
|-----------------hp-----------------hp--|
|--5--5--5-1--1--140--5--5--5-1--1--140--|
|----0--0----0--0-------0--0----0--0-----|
     .  .    .  .       .  .    .  .
Second guitar part(play last time only)
|---------------------|
|---------------------|
|---------------------|
|---------------------|
|--8--8--8-5--5--575--|
|----0--0----0--0-----|
     .  .    .  .
Riff 2 2x
|-----------------------------------|
|-----------------------------------|
|-----------------------------------|
|-----------------------------------|
|--5--5--8-7--7--7-4--4--8-5--5--7--|
|----0--0----0--0----0--0----0--0---|
     .  .    .  .    .  .    .  .
Second guitar (play 3rd and 4th times)
|-----------------------------------|
|-----------------------------------|
|-----------------------------------|
|--3--3--7-5--5--5-2--2--7-3--3--5--|
|-----------------------------------|
|----0--0----0--0----0--0----0--0---|
     .  .    .  .    .  .    .  .
Riff 3 (all tremolo picked)
|----------------------------------|
|----------------------------------|
|----------------------------------|
|----------------------------------|
|--5--1-4--1-4-7-5--1-4--1--00-00--|
|---------------------------00-00--|
 pm                         .. ..
|----------------------------------|
|----------------------------------|
|----------------------------------|
|----------------------------------|
|--5--1-4--1-4-7-5--1-4--1--1p0----|
|-----------------------------5p3--|

Riff 2
Riff 3 ending with Riff 4 end:
|---------------------|
|---------------------|
|------------------ph-|
|---8-8-8-8777755552--|(two guitars)
|--10101010888877774--|
|---------------------|

Riff 4
|-----------------------------------------------------------------|
|-----------------------------------------------------------------|
|-----------------------------------------------------------------|
|----------pp--hh-----------------------pp--hh--8-8-8-8777755552--|
|--000000-875-578-000000----5---000000-875-578-10101010888877774--|
|--000000---------000000-875-87-000000----------------------------|
   ......         ...... ... .. ......

Riff 5 (Two guitars playing top parts)
|------------------------------------------------------------|
|------------------------------------------------------------|
|------ph--------ph---------------------ph--------ph---------|
|-----757-------857--------------------757-------857-2--7-5--|
|-----878------1078--------------------878------1078-4--8-7--|
|--888---101010----0000000000000000-888---101010-------------|
   ...    . . .    ................ ...    . . .
Riff 6
|---------------------------------------|
|---------------------------------------|
|---------------------------------------|
|---------------------------------------|
|--0----0----1/44\1-0-0----0----5-5p4-1-|
|--00000000001/44\1-0-0000000000-0------|
    .... ....          .... .... .

Under solo
A.
|--------------------|
|--------------------|
|--------------------|
|--------------------|
|--------------------|
|--8888555500000000--|
   ................
4x

B.
|----------------------------------------------|
|----------------------------------------------|
|-------------------------------------------5--|
|--8--10-------------------8----------7--5-----|
|--8--10-------------------8-------------------|
|--8--10---00000000000000008-5/7-7-000-00-00---|
           ................        ... .. ..
4x

Solo (Play "A" solo riff)
|---------h-p--------------hp-------hp------------------------|
|-13fb-r11131110----------9109-----9109--13-11-10-11-10---10--|
|---------------10------10----10-10----10---------------12----|
|-----------------12---12-------12----------------------------|
|-------------------------------------------------------------|
|-------------------------------------------------------------|

|--------------------------------------------------------------------|
|-------------------------------------------p---p--------------------|
|-14\12-1212/14-1414\10-1010/12-1212\10-9-109--97--12109109----------|
|--------------------------------------------12--10--------1210-1012-|
|--------------------------------------------------------------------|
|--------------------------------------------------------------------|

Start "B" solo riff
|-----1010----1010----1010----1010-13121012101315-|
|-13fb----13fb----13fb----13fb--------------------|
|-------------------------------------------------|
|-------------------------------------------------|
|-------------------------------------------------|
|-------------------------------------------------|
                h p
|-15fb-131513-121312-----------h-20--h-20--h-20--h-20--|
|-------------------15-1315--1718--1718--1718--1718----|
|------------------------------------------------------|
|------------------------------------------------------|
|------------------------------------------------------|
|------------------------------------------------------|

|-2018171817151715131513121312101210--10----------------------------|
|-----------------------------------13--13111311101110--10----------|
|-----------------------------------------------------12--121012109-|
|-------------------------------------------------------------------|
|-------------------------------------------------------------------|
|-------------------------------------------------------------------|

(Tapping with trills after)
  T          T          T          T
|1310121012-1310121012-1510131013-1510131013-|
|--------------------------------------------|
|--------------------------------------------|
|--------------------------------------------|
|--------------------------------------------|
|--------------------------------------------|
   T      T      T      T
|-131012-151013-131012-151312-13121012101213-1210-|
|-------------------------------------------------|
|-------------------------------------------------|
|-------------------------------------------------|
|-------------------------------------------------|
|-------------------------------------------------|

|-12\10-1010/12-1212/13-1313\12-1212/13-1313/15-1515\13-1313/15--|
|----------------------------------------------------------------|
|----------------------------------------------------------------|
|----------------------------------------------------------------|
|----------------------------------------------------------------|
|----------------------------------------------------------------|
Con't.
|-1515/17-1717\15-1515\13-1313\12-1212\10--|
|------------------------------------------|
|------------------------------------------|
|------------------------------------------|
|------------------------------------------|
|------------------------------------------|

Riff 7 Open C's are tremolo picked
|------------------------------------|
|------------------------------------|
|------------------------------------|
|------------------------------------|
|--0--------0---5870------------352--|
|--00000000000005870000000000000352--|
              
2x

Riff 7 after that (both guitars)
|----------------------------------|
|----------------------------------|
|----------------------------------|
|----------------------------------|
|--------------587------------352--|
|--000000000000587000000000000352--|
4x

Riff 3 twice ending with
|---------------------|
|---------------------|
|---------------------|
|---------------------|
|--000-333-555-333-0--|
|--000-333-555-333-0--|
   ... ... ... ... .
Pause
Riff 4
Riff 5
Riff 6
End with
|-----------------|
|-----------------|
|-----------------|
|-----------------|
|--1\\\\--8750-0--|
|---------8750-0--|
          ...





Comments


Popular Black Dahlia Murder tabs & chords
Statutory Ape 2 Bass Tabs
Thy Horror Cosmic Bass Tabs
Warborn Bass Tabs
Built For Sin Tabs
Death Panorama Tabs
Miscarriage Tabs
Necropolis Tabs
Nocturnal Tabs
Thy Horror Cosmic 1 Tabs
What A Horrible Night To Have A Curse 4 Tabs


Song lyrics



↑ Back to top | Tablatures and chords are parodies/interpretations of the original songs. You may use it for private study, scholarship, research or language learning purposes only
© 2014 AZChords.com Contact us | Privacy policy | DMCA | Add/correct tabs | Request tabs | Top 50 tabs