» » »

Black Dahlia Murder, Elder Misanthropy Bass tabs (ver.1)

Artists:  A B C D E F G H I J K L M N O P Q R S T U V W X Y Z # 

Elder Misanthropy Bass tabs (ver.1)

Black Dahlia Murder Tabs
Rating:
0/5 (0 votes)
Elder Misanthropy lessons Tabs too difficult? Try these video lessons and learn fast
                Band- Black Dahlia Murder
Song- Elder Misanthropy

Tuning : CGCF

F|----|---------------------------------|
C|----|---------------------------------|
G|----|---------------------------------|
C|-8-5|0-0-0-0-0-0-0-0-0-0-0-0-0-0-0-0-0|

F|---------------------------------|-------------------------------|
C|---------------------------------|-------------------------------|
G|---------------------------------|-------------------------------|
C|0-0-0-0-0-0-0-0-0-0-0-0-0-0-0-0-0|8-8-8-8-8-8-8-8-6-6-6-6-6-6-6-6|

F|---------------------------------|---------------------------------|
C|---------------------------------|---------------------------------|
G|---------------------------------|---------------------------------|
C|0-0-0-0-0-0-0-0-0-0-0-0-0-0-0-0-0|0-0-0-0-0-0-0-0-0-0-0-0-0-0-0-0-0|

F|-------------------------------|----------------------------------|
C|-------------------------------|----------------------------------|
G|-------------------------------|----------------------------------|
C|8-8-8-8-8-8-8-8-6-6-6-6-6-6-6-6|0-0---0--0-0---0--0-0---0--0-0---0|

F|-------------------------------|----------------------------------|
C|-------------------------------|----------------------------------|
G|-------------------------------|----------------------------------|
C|8-8-8-8-8-8-8-8-8-8-8-8-8-8-8-8|0-0---0--0-0---0--0-0---0--0-0---0|

F|-------------------------------|----------------------------------|
C|-------------------------------|----------------------------------|
G|-------------------------------|----------------------------------|
C|6-6-6-6-6-6-6-6-6-6-6-6-6-6-6-6|0-0---0--0-0---0--0-0---0--0-0---0|

F|-------------------------------|----------------------------------|
C|-------------------------------|----------------------------------|
G|-------------------------------|----------------------------------|
C|8-8-8-8-8-8-8-8-8-8-8-8-8-8-8-8|0-0---0--0-0---0--0-0---0--0-0---0|

F|-------------------------------|----------|
C|-------------------------------|----------|
G|-------------------------------|----------|
C|6-6-6-6-6-6-6-6-6-6-6-6-6-6-6-6|0------0-0|

F|---------------------------------|---------------------------------|
C|---------------------------------|---------------------------------|
G|----7-7-8-8-----7-7-8-8-7-7------|----7-7-8-8-----7-7-8-8-10-10-8-8|
C|0-0---------0-0-------------10-10|8-8---------8-8------------------|

F|---------------------------------|----------|
C|---------------------------------|---------5|
G|----7-7-8-8-----7-7-8-8-7-7------|5--7--8---|
C|0-0---------0-0-------------10-10|----------|

F|---------------------------------|---------------------------------|
C|---------------------------------|---------------------------------|
G|----7-7-8-8-----7-7-8-8-7-7------|----7-7-8-8-----7-7-8-8-10-10-8-8|
C|0-0---------0-0-------------10-10|8-8---------8-8------------------|

F|---------------------------------|----------|
C|---------------------------------|---------5|
G|----7-7-8-8-----7-7-8-8-7-7------|5--7--8---|
C|0-0---------0-0-------------10-10|----------|

F|---------------------------------|---------------------------------|
C|---------------------------------|---------------------------------|
G|---------------------------------|---------------------------------|
C|0-0-0-0-0-0-0-0-0-0-0-0-0-0-0-0-0|0-0-0-0-0-0-0-0-0-0-0-0-0-0-0-0-0|

F|-------------------------------|---------------------------------|
C|-------------------------------|---------------------------------|
G|-------------------------------|---------------------------------|
c|8-8-8-8-8-8-8-8-6-6-6-6-6-6-6-6|0-0-0-0-0-0-0-0-0-0-0-0-0-0-0-0-0|

F|---------------------------------|---------------------------------|
C|---------------------------------|---------------------------------|
G|---------------------------------|---------------------------------|
C|0-0-0-0-0-0-0-0-0-0-0-0-0-0-0-0-0|0-0-0-0-0-0-0-0-0-0-0-0-0-0-0-0-0|

F|-------------------------------|----------------------------------|
C|-------------------------------|----------------------------------|
G|-------------------------------|----------------------------------|
C|6-6-6-6-6-6-6-6-6-6-6-6-6-6-6-6|0-0---0--0-0---0--0-0---0--0-0---0|

F|-------------------------------|----------------------------------|
C|-------------------------------|----------------------------------|
G|-------------------------------|----------------------------------|
C|8-8-8-8-8-8-8-8-8-8-8-8-8-8-8-8|0-0---0--0-0---0--0-0---0--0-0---0|

F|-------------------------------|----------------------------------|
C|-------------------------------|----------------------------------|
G|-------------------------------|----------------------------------|
C|6-6-6-6-6-6-6-6-6-6-6-6-6-6-6-6|0-0---0--0-0---0--0-0---0--0-0---0|

F|-------------------------------|----------------------------------|
C|-------------------------------|----------------------------------|
G|-------------------------------|----------------------------------|
C|8-8-8-8-8-8-8-8-8-8-8-8-8-8-8-8|0-0---0--0-0---0--0-0---0--0-0---0|

F|-------------|--------------------------------|
C|---------5---|--------------------------------|
G|5--7--8------|--------------------------------|
C|------------0|0-0-0-0-0-0-8--8-8-8-8-8-8-10___|

F|-------------------------------------|
C|-------------------------------------|
G|-------------------------------------|
C|10-10-10-10-10-10-5--5-5-5-5-5-5-0___|

F|--------------------------------|
C|--------------------------------|
G|--------------------------------|
C|0-0-0-0-0-0-8--8-8-8-8-8-8-10___|

F|-------------------------------------|
C|-------------------------------------|
G|-------------------------------------|
C|10-10-10-10-10-10-5--5-5-5-5-5-5-0___|

F|--------------------------------|
C|--------------------------------|
G|--------------------------------|
C|0-0-0-0-0-0-8--8-8-8-8-8-8-10___|

F|-------------------------------------|
C|-------------------------------------|
G|-------------------------------------|
C|10-10-10-10-10-10-5--5-5-5-5-5-5-0___|

F|--------------------------------|
C|--------------------------------|
G|--------------------------------|
C|0-0-0-0-0-0-8--8-8-8-8-8-8-10___|

F|-------------------------------------|
C|-------------------------------------|
G|-------------------------------------|
C|10-10-10-10-10-10-5--5-5-5-5-5-5-0___|

F|-----------------------------------|-------------------------------|
C|-----------------------------------|-------------------------------|
G|-----------------------------------|--------------------5---------4|
C|0-0-0-0-0-0-0-0-0-0-0-0-0-0-0-0-0-0|0-0-0-0-0-0-0-0-0-7---8-7-5-7--|

F|-----------------------------------|-------------------------------|
C|-----------------------------------|-------------------------------|
G|-----------------------------------|--------------------5---------4|
C|0-0-0-0-0-0-0-0-0-0-0-0-0-0-0-0-0-0|0-0-0-0-0-0-0-0-0-7---8-7-5-7--|

F|-----------------------------------|-------------------------------|
C|-----------------------------------|-------------------------------|
G|-----------------------------------|--------------------5---------4|
C|0-0-0-0-0-0-0-0-0-0-0-0-0-0-0-0-0-0|0-0-0-0-0-0-0-0-0-7---8-7-5-7--|

F|--------------------------------|-----------------------------------------------|
C|--------------------------------|-----------------------------------------------|
G|--------------------------------|-----------------------------------------------|
C|8-8-8-8-8-8-8-8-8-8-8-8-8-8-8-8-|10-10-10-10-10-10-10-10-10-10-10-10-10-10-10-10|

F|-------------------------------|
C|-------------------------------|
G|--------------------5---------4|
C|0-0-0-0-0-0-0-0-0-7---8-7-5-7--|

F|--------------------------------|-----------------------------------------------|
C|--------------------------------|-----------------------------------------------|
G|--------------------------------|-----------------------------------------------|
C|8-8-8-8-8-8-8-8-8-8-8-8-8-8-8-8-|10-10-10-10-10-10-10-10-10-10-10-10-10-10-10-10|

F|--------------------------------|-----------------------------------------------|
C|--------------------------------|-----------------------------------------------|
G|--------------------------------|-----------------------------------------------|
C|8-8-8-8-8-8-8-8-8-8-8-8-8-8-8-8-|10-10-10-10-10-10-10-10-10-10-10-10-10-10-10-10|

F|---------------------------------|-------------------------------|
C|---------------------------------|-------------------------------|
G|---------------------------------|-------------------------------|
C|0-0-0-0-0-0-0-0-0-0-0-0-0-0-0-0-0|8-8-8-8-8-8-8-8-8-8-8-8-8-8-8-8|

F|---------------------------------|-------------------------------|
C|---------------------------------|-------------------------------|
G|---------------------------------|-------------------------------|
C|0-0-0-0-0-0-0-0-0-0-0-0-0-0-0-0-0|8-8-8-8-8-8-8-8-8-8-8-8-8-8-8-0|

F|--------------------------------|
C|--------------------------------|
G|--------------------------------|
C|0-0-0-0-0-0-8--8-8-8-8-8-8-10___|

F|-------------------------------------|
C|-------------------------------------|
G|-------------------------------------|
C|10-10-10-10-10-10-5--5-5-5-5-5-5-0___|

F|--------------------------------|
C|--------------------------------|
G|--------------------------------|
C|0-0-0-0-0-0-8--8-8-8-8-8-8-10___|

F|-------------------------------------|
C|-------------------------------------|
G|-------------------------------------|
C|10-10-10-10-10-10-5--5-5-5-5-5-5-0___|
F|--------------------------------|
C|--------------------------------|
G|--------------------------------|
C|0-0-0-0-0-0-8--8-8-8-8-8-8-10___|

F|-------------------------------------|
C|-------------------------------------|
G|-------------------------------------|
C|10-10-10-10-10-10-5--5-5-5-5-5-5-0___|

F|--------------------------------|
C|--------------------------------|
G|--------------------------------|
C|0-0-0-0-0-0-8--8-8-8-8-8-8-10___|

F|-------------------------------------|
C|-------------------------------------|
G|-------------------------------------|
C|10-10-10-10-10-10-5--5-5-5-5-5-5-0___|

F|---------------------------------|---------------------------------|
C|---------------------------------|---------------------------------|
G|---------------------------------|---------------------------------|
C|0-0-0-0-0-0-0-0-0-0-0-0-0-0-0-0-0|0-0-0-0-0-0-0-0-0-0-0-0-0-0-0-0-0|

F|---------------------------------|---------------------------------|
C|---------------------------------|---------------------------------|
G|---------------------------------|---------------------------------|
C|0-0-0-0-0-0-0-0-0-0-0-0-0-0-0-0-0|0-0-0-0-0-0-0-0-0-0-0-0-0-0-0-0-0|

F|---------------------------------|---------------------------------|
C|---------------------------------|---------------------------------|
G|---------------------------------|---------------------------------|
C|0-0-0-0-0-0-0-0-0-0-0-0-0-0-0-0-0|0-0-0-0-0-0-0-0-0-0-0-0-0-0-0-0-0|

F|---------------------------------|---------------------------------|
C|---------------------------------|---------------------------------|
G|---------------------------------|---------------------------------|
C|0-0-0-0-0-0-0-0-0-0-0-0-0-0-0-0-0|0-0-0-0-0-0-0-0-0-0-0-0-0-0-0-0-0|

F|---|
C|---|
G|---|
C|0-0|
            

comments powered by Disqus
↑ Back to top | Black Dahlia Murder Bass for Elder Misanthropy. Lyrics for acoustic guitar and electric guitar. Tablatures and chords are parodies/interpretations of the original songs. You may use it for private study, scholarship, research or language learning purposes only