>
 >
Dave Goes To Hollywood

Dave Goes To Hollywood Guitar Tabs

Black Dahlia Murder - Dave Goes To Hollywood chords, tabs, tablatures, lyrics

Guitar lessons | Add/correct | Request | Top 50 tabs Artists:  A B C D E F G H I J K L M N O P Q R S T U V W X Y Z 0-9

Dave Goes To Hollywood Guitar Tabs – Black Dahlia Murder

CD, Sheet music, Poster

Do you like Dave Goes To Hollywood? Share with your friends now
Tabs
-------------------------------------------------------------------------------
                   Dave Goes To Hollywood - The Black Dahlia Murder
-------------------------------------------------------------------------------

Tuning:C Standard (C F Bb Eb G C)

 Remember, * means split up that chord between two guitars. Play the root note if you're by yourself.

Intro
c|---------------------------------------------------------------------------|
G|---------------------------------------------------------------------------|
Eb|--------------------------------------------------------------------------|
Bb|----------------------1---------------------------------------------------|
F|--7--3--6--2--7--3--6--2---------------------------------------------------|
C|---00-00-00-00-00-00-00----------------------------------------------------|
     .. .. .. .. .. .. ..*

Verse                                                         Second ending
c|-------------------------------------------------------------|--------------|
G|-------------------------------------------------------------|--------------|
Eb|------------------------------------------------------------|--------------|
Bb|--------------7-------------------------7----------------6-7|--------------|
F|---7-7-5h7--7-8-------5-------7-7-5h7-7-8------7-----5-7-8---|-8-7-7-5-5----|
C|--0--------------8-7-5-8-7-5-0------------5-7-8-8-7-5--------|----5---5-8-5-|
    .              . . ... . . .            . . . . . .. . ..

  Riff 1
  TP TP         TP TP
c|-----------------------------------------------------------------------------------|
G|-----------------------------------------------------------------------------------|
Eb|----------------------------------------------------------------------------------|
Bb|----------------------------------------------------------------------------------|
F|------7-9-------7-6----------------------------------------------------------------|
C|-8----5-7-----0------1-0-----------------------------------------------------------|
        . .
Repeat verse

Little fill thing
c|---------------------------------------------------------------------------|
G|---------------------------------------------------------------------------|
Eb|--------------------------------------------------------------------------|
Bb|------9--7-9--7-----------------------------------------------------------|
F|-------10-9h10p9--------------7--------------------------------------------|
C|--0-0-0-----------0-0-0-10-8-7-10-8----------------------------------------|
    . . .*  * *  *  . . . .  . ...  .

Best Part
c|---------------------------------------------------------------------------|
G|---------------------------------------------------------------------------|
Eb|-----4/5-----5/7-----7h9--9--7-5-----7h9--9------10---9----7--------------|
Bb|-----5/7-----7/9-----9h10-10-9-7-----9h10-10-----12---10---9---9----------|
F|---------------------------------------------------------------------------|
C|-0-0-0---0-0-0---0-0-0-----------8-8-8-------8-8-8--8-8--8-8-8-8-----------|
   . . .* *. . .* *. . .* *  *  * *. . .* *  * . . .* . .* . .*. .

c|---------------------------------------------------------------------------|
G|----------------------------------------------------------------O----------|
Eb|-----------------------------------------------5-5-4---4------------------|
Bb|-----5/7-----7/9---9h10-10-9-7-/10-9-10-9-\4~--------7---7--5-------------|
F|----------------------------------------------------------------O----------|
C|-0-0-0---0-0-0---0-0-------------------------------------------------------|

Triplet Riff
c|---------------------------------------------------------------------------|
G|---------------------------------------------------------------------------|
Eb|--------------------------------------------------------------------------|
Bb|--------------------------------------------------------------------------|
F|--------------------------777-666------------------------------------------|
C|-888-888-888--555-777-555---------000-000-000-000-000-000-000-000----------|

End triplet riff
c|---------------------------------------------------------------------------|
G|---------------------------------------------------------------------------|
Eb|--------------------------------------------------------------------------|
Bb|--------------------------------------------------------------------------|
F|---------------------------------------------------------------------------|
C|-111-111-111-444-444-444-111-111-------------------------------------------|

Riff 5                                        Last Time
c|------------------------------------------|-------------------------------|
G|------------------------------------------|-------------------------------|
Eb|-----------------------------------------|-------------------------------|
Bb|----/7-6~-----------------------------2--|-------------------------------|
F|-2--------7-7h8~---8\7---7\5---5\3-3p2-2--|----7/8---8/10--10/12---12/14--|
C|-0-00-----------0-0---0-0---0-0--------0--|-0-0---0-0----0-0----0-0-------|
     ..           . .   . .   . .

Riff 6
c|---------------------------------------------------------------------------|
G|---------------------------------------------------------------------------|
Eb|---------------------2-1--------------------------------------------------|
Bb|--2-3-2-----------------3------------2h3-2-3-2----------------------------|
F|---------------------------------------------------------------------------|
C|--0-----000-000-0h1-1-----111-111-111----------000-000-000-----------------|

Keep playing that until:
    TP TP TP TP TP TP TP
c|--------------------------------------------------------------------------------------|
G|------------------------O-------------------------------------------------------------|
Eb|-------------------------------------------------------------------------------------|
Bb|-------------------------------------------------------------------------------------|
F|------------------------O-------------------------------------------------------------|
C|---5-4-1---8-5-4-5-4-0----------------------------------------------------------------|

mini solo thing
c|--------16~----------------------------------------------------------------|
G|------------16-17-16~------------------------------------------------------|
Eb|--------------------------------------------------------------------------|
Bb|--------------------------------------------------------------------------|
F|---------------------------------------------------------------------------|
C|---------------------------------------------------------------------------|


There you go. Put them in order, and voila, instant Dave Goes To Hollywood! Yay!


| TP tremolo pick
| *  split up chord between two guitars
| /  slide up
| \  slide down
| h  hammer-on
| p  pull-off
| ~  vibrato
| +  harmonic
| x  Mute note
===============================================================================





Comments


Popular Black Dahlia Murder tabs & chords
Elder Misanthropy Bass Tabs
Built For Sin Intro Tabs
Closed Casket Requiem 1 Tabs
Miasma Tabs
Miscarriage Tabs
Spite Suicide Tabs
Thy Horror Cosmic 2 Tabs
Unhallowed Tabs
What A Horrible Night To Have A Curse Tabs
When The Last Grave Has Emptied 1 Tabs


Song lyrics



↑ Back to top | Tablatures and chords are parodies/interpretations of the original songs. You may use it for private study, scholarship, research or language learning purposes only
© 2014 AZChords.com Contact us | Privacy policy | DMCA | Add/correct tabs | Request tabs | Top 50 tabs