» » »

Black Dahlia Murder, Contagion Bass tabs (ver.1)

Artists:  A B C D E F G H I J K L M N O P Q R S T U V W X Y Z # 

Contagion Bass tabs (ver.1)

Black Dahlia Murder Tabs
Rating:
4/5 (1 vote)
Contagion lessons Tabs too difficult? Try these video lessons and learn fast
                Band- Black Dahlia Murder
Song- Conagion

Intro
F|--------------------------------||
C|--------------------------------||
G|--------------------------------||
C|--7~--------3~--------0~--------||

Riff 1
F|----------------------------------------------------------------||
C|----------------------------------------------------------------||
G|----6p5-5p3---6p5-5p3-6p5-8p6----6p5-5p3------------------------||
C|-000-------000----------------000--------000-555666555333-------||

Riff 2
F|----------------------------------------------------------------------------||
C|----------------------------------------------------------------------------||
G|----5h3-0---------------5h3-0---------------5h3-0---------------------------||
C|-000-----5-3-0-3-5p6-000-----5-3-0-3-5p6-000-----5-3-0-3-5p6-000-1~-000-1~--||

Riff 3
F|----------------------------------------------------------------||
C|----------------------------------------------------------------||
G|----5-8-7h4----4h5h4---4h5h4----5-8-7h4-------------------------||
C|-000-0-0----000-----000------000-0-0----000000000000------------||

Under Solo
F|----------------------------------------------------------------||
C|----------------------------------------------------------------||
G|----------------------------------------------------------------||
C|-5-555-5-555-1-111-1-3-1-0-0000-0-0000-0-0000-0-0000------------||

Ending Riff 1 x2(tremelo picking)
F|---------------------------------------||
C|-------------333333222222--------------||
G|--------------------------5----5-5-----||
C|-333333222222--------------0000--------||

Ending Riff 2 x2 ( still tremelo picking)
F|------------------------------------------------||
C|------------------------------------------------||
G|-------------888888777777-5----5-5--------------||
C|-777777666666--------------0000-----------------||

Last Time end with very bluntly
F|----------------||
C|----------------||
G|--5-6-----------||
C|----------------||
            
Submit corrections

comments powered by Disqus
↑ Back to top | Black Dahlia Murder Bass for Contagion. Lyrics for acoustic guitar and electric guitar. Tablatures and chords are parodies/interpretations of the original songs. You may use it for private study, scholarship, research or language learning purposes only