>
 >
Closed Casket Requiem 1

Closed Casket Requiem 1 Guitar Tabs

Black Dahlia Murder - Closed Casket Requiem 1 chords, tabs, tablatures, lyrics

Guitar lessons | Add/correct | Request | Top 50 tabs Artists:  A B C D E F G H I J K L M N O P Q R S T U V W X Y Z 0-9

Closed Casket Requiem 1 Guitar Tabs – Black Dahlia Murder

CD, Sheet music, Poster

Do you like Closed Casket Requiem 1? Share with your friends now
TabsTabs v2Tabs v3
.  - palm mute           /  - slide up to
\  - slide down to       ~  - vibrato
h  - hammer on           b  - Bend
p  - pull off            Suffixes for bend
t  - tap                 f  - full bend    h - half bend
ph - pinched harmonic    q  - quarter bend t - tap bend
*  - see comment         ^  - Hold bend    r release bend
x  - Stuccatto           ~  - vibrato bend
,  - slight palm mute    () - ghost note, sustained note
"  - tremolo note        <> - Trill

Tuning C,G,C,F,A,D, (Drop C)

Riff 1 (Parenthesis played by Gtr. 2 last time)
|----------------------------------------------------|
|----------------------------------------------------|
|----------------------------------------------------|
|-----------------h-p---hp--------------(8108--787)--|
|-----8-7-10-8--101210-8108---8-7-10-8--101210-8108--|
|--000-0-0--0-00-----------000-0-0--0-00-------------|

Riff 2 (Two Guitars)
|--------------------------------------------|
|--------------------------------------------|
|--------------------------""""""""----------|
|-----10-8------8--7---8-5-77775555""""""""--|
|----------------------------------88887777--|
|--000--0-101010-10-888-8--------------------|
|  ...  .  . . .  . ... .
|--------------------------------------------|
|--------------------------------------------|
|--------------------------------------------|
|--------------------------""""""""""""""""--|
|-----12-10-----10-8--10-7-8888777755554444--|
|--000--0-101010-10-888-8--------------------|
   ...  .  . . .  . ... .
Riff 3 (Really fast triplets, sounds like one note)
|----------------------------------------------------------------|
|----------------------------------------------------------------|
|----------------------------------------------------------------|
|----------------------------------------------------------------|
|-----------------1087-8-10------------------------101010108888--|
|-000-000-000-0008-----8-10--000-000-000-00088887777-------------|
  ... ... ... ....           ... ... ... ...

Riff 4
|-------------------------------------------------------|
|-------------------------------------------------------|
|-------------------------------------""""""""----------|
|-------------------------------------77775555""""""""--|
|--8--10-8108-10---10--8108-0-----------------88887777--|
|--8-8--8-----10-10--10-----0-00000000------------------|
     .  .        .    .       ........
|-----------------------------------------------------------|
|-----------------------------------------------------------|
|-----------------------------------------------------------|
|-------------------------------------""""""""-"-"-"-"""""--|
|--8--10-8108-10---10--8108-0---------77778888101010108888--|
|--8-8--8-----10-10--10-----0-00000000----------------------|
     .  .         .   .       ........
Play 1 and a half times then
|-------------------------|
|-------------------------|
|-------------------------|
|-------------------------|
|--7-77777-10-1010101010--|
|--7-77777-10-1010101010--|
     .....     . . . . .
Repeat Riff 4 with second guitar part played with it (below)
|-------------------------------------------------------|
|-------------------------------------------------------|
|--------hp----------hp------------"-"-"-"""""""""""""--|
|-----8-787------8--787-----------10101010888877775555--|
|--8--------10----------0-------------------------------|
|--8-8-8----10-10-10----0-00000000----------------------|
     . .        .  .      ........
|----------------------------------------------------|
|----------------------------------------------------|
|--------hp----------hp-----------"""""""""""""""""--|
|-----8-787------8--787-----------55555777788887777--|
|--8--------10----------0----------------------------|
|--8-8-8----10-10-10----0-00000000-------------------|
     . .        .  .      ........
Then(Both)
|---------------|
|---------------|
|---------------|
|---------------|
|--7-777777-----|
|--7-777777-----|
     ......
Pause
Riff 1
Riff 2
Riff 3
Riff 4

Riff 5
Gtr. 1
|--------------------------------|
|--------------------------------|
|--------------------------------|
|------5555----------------------|
|--8888----77778888555511114444--|
|--------------------------------|
|Gtr. 2
|--------------------------------|
|--------------------------------|
|--------------------------------|
|------8888----7777--------------|
|--5555----4444------------------|
|------------------888855557777--|

Gtr. 1 & 2
|-----|
|-----|
|-----|
|-----|
|--7--|
|-10--|

Riff 6
Rhythm
|--------------------------------------------------|
|--------------------------------------------------|
|--------------------------------------------------|
|--------------------------------------------------|
|--0----------8--7--------------0--------8--7------|
|--0----------8--7--------------0--------8--7------|
|Gtr. 1 Lead
|--------------------------------------------------------------|
|--------------------------------------------------------------|
|--------------------------------------------------------------|
|-----5--7-----8--7----3--2----------5--7---8--7----3--2-------|
|---------------------------5--4-------------------------5--4--|
|--------------------------------------------------------------|
|Gtr. 2 Lead
|-----------------------------------------------------------------|
|-----------------------------------------------------------------|
|-----------------------------------------------------------------|
|-------------------------1087--7------------------------1087--7--|
|-----7--8----10--8--78108----10-----7--8----10--8--78108----10---|
|-----------------------------------------------------------------|

Riff 7
Gtr. 1
|------------------------------------------------|
|------------------------------------------------|
|------------------------------------------------|
|------------------------------------------------|
|----77881010121210108877--77881010887788--------|
|--88--------------------88--------------10------|
|Gtr. 2
|------------------------------------------------|
|------------------------------------------------|
|------------------------------------------------|
|------------------------------------------------|
|------------------------------1010101088887777--|
|--8888888888888888888888888888------------------|

Con't.
Gtr. 1
|------------------------------------------------|
|------------------------------------------------|
|------------------------------------------------|
|------------------------------1010887788--------|
|----77881010--778810--77881010------------------|
|--00--------00------00--------------------------|
|Gtr. 2
|------------------------------------------------|
|------------------------------------------------|
|------------------------------------------------|
|------------------------------------------------|
|------------------------------5555555577778888--|
|--0000000000000000000000000000------------------|

Riff 8
Gtr. 1 Play Parenthesis last time.
|---------------------------------------------------------|
|---------------------------------------------------------|
|------------------------hp--------------------h------h---|
|--8-------8-----8---7--575-0----h------h----(78-----810)-|
|--8---8-8-8----------------0---78-0---78-0---78-0---108--|
|--8---8-8-8----------------0-00---0-00---0-00---0-00-----|
|Gtr. 2. .                    ..     ..     ..     ..
|---------------------------------------------------------|
|---------------------------------------------------------|
|---------------------------------------h-----------------|
|--8-------8-------------hp-0----------57-----------------|
|--8---8-8-8----10---8--787-0------0--------5------7---8--|
|--8---8-8-8----------------0------0-00-------------------|
       . .                           ..

"For this perfect end!"
|-----------------|
|-----------------|
|-----------------|
|----------373\2--|
|--0---0---575\4--|
|--0---0----------|

Play Riff 1
Then Riff 2
End with slow end of Riff 2

Riff 9 Last parts arranged on one line for 3 guitars (Rhythm/2 lead)
|-------------------------------------------------------------------|
|-------------------------------------------------------------------|
|-------------------------------------------------------------------|
|--------------------------7-3-----------------------------5-2------|
|--------------------------8-5-----------------------------7-4------|
|--000-0-0-000-0-0-000-0-0-000-0-0-000-0-0-000-0-0-000-0-0-000-0-0--|x2
   ... . . ... . . ... . . ... . . ... . . ... . . ... . . ... . .

|-------------------------------------------------------------------|
|-------------------------------------------------------------------|
|-------------------------------------------------------------------|
|--------------------------3-7-----------------------------5-8------|
|--------------------------5-3-----------------------------7-10-----|
|--000-0-0-000-0-0-000-0-0-000-0-0-000-0-0-000-0-0-000-0-0-000-0-0--|x2
x2 ... . . ... . . ... . . ... . . ... . . ... . . ... . . ... . .

Two Guitars
|-----------------|
|-----------------|
|-----------------|
|--0-----3--------|
|--1~~---4~~---0--|
|--------------0--|
Fade out
End.





Comments


Popular Black Dahlia Murder tabs & chords
When The Last Grave Has Emptied Bass Tabs
Blackest Incarnation 1 Tabs
Built For Sin Tabs
Deathmask Divine Intro Tabs
I Will Return Tabs
Miscarriage 2 Tabs
Novelty Crosses Tabs
Statutory Ape Tabs
Thy Horror Cosmic Tabs
Worship Only What You Bleed Intro Tabs


Song lyrics



↑ Back to top | Tablatures and chords are parodies/interpretations of the original songs. You may use it for private study, scholarship, research or language learning purposes only
© 2014 AZChords.com Contact us | Privacy policy | DMCA | Add/correct tabs | Request tabs | Top 50 tabs