» » »

Black Dahlia Murder, Black Valor Tabs (ver.1)

Artists:  A B C D E F G H I J K L M N O P Q R S T U V W X Y Z # 

Black Valor Tabs (ver.1)

Black Dahlia Murder Tabs
 Rating:
4/5 (4 votes)
Black Valor lessons Tabs too difficult? Try these video lessons and learn fast
1
                (Intro)
Hey guys! This is the intro to BDM Black Valor. Drop C tuning. I figured it out by ear. 
Sounds right to me. This is a good portion of the intro. If you guys have any questions 


Into 0:00


D|--------------------------------------------------|
A|--------------------------------------------------|
F|--------------------------------------------------|
C|--------------------------------------------------|
G|--------12---13---13---8---8----7----7/-----------|
C|------0----0-----0----0---0----0----0-------------|

D|--------------------------------------------------|
A|--------------------------------------------------|
F|--------------------------------------------------|
C|--------------------------------------------------|
G|---5----3---3---7---7---5---5---------------------|
C|-8---8----8---8---8---8---8-----------------------|

D|--------------------------------------------------|
A|--------------------------------------------------|
F|--------------------------------------------------|
C|--------------------------------------------------|
G|---12---13---13---8---8----7----7/----------------|
C|-0----0-----0----0---0----0----0------------------|

D|--------------------------------------------------|
A|--------------------------------------------------|
F|--------------------------------------------------|
C|--------------------------------------------------|
G|---5----3---3---7---7---5---5---------------------|
C|-8---8----8---8---8---8---8-----------------------|


D|--------------------------------------------------|
A|--------------------------------------------------|
F|--------------------------------------------------|
C|--------------------------------------------------|
G|---------------------------------444444444444-----|
C|----8888888------55555555-------------------------|

D|--------------------------------------------------|
A|--------------------------------------------------|
F|--------------------------------------------------|
C|--------------------------------------------------|
G|---------------------------------444444444444-----|
C|----8888888------55555555-------------------------|

D|--------------------------------------------------|
A|--------------------------------------------------|
F|--------------------------------------------------|
C|--------------------------------------------------|
G|---------------------------------555555555555-----|
C|------8888888----55555555-------------------------|

D|--------------------------------------------------|
A|--------------------------------------------------|
F|--------------------------------------------------|
C|--------------------------------------------------|
G|---------------------------------555555555555-----|
C|-----8888888-----55555555-------------------------|




Verse/Vocals Begin 0:14




D|-------------------------------------------------------------|
A|-------------------------------------------------------------|
F|-------------------------------------------------------------|
C|-------------------------------------------------------------|
G|--4p0------5----8----4p0--------5----8-----4p0-----5---8-----|
C|--------0----0---------------0----0--------------0---0-------|

D|--------------------------------------------------|
A|--------------------------------------------------|
F|--------------------------------------------------|
C|--------------------------------------------------|
G|-4p0-------5----4---------------------------------|
C|-------0-----0------------------------------------|

D|-------------------------------------------------------------|
A|-------------------------------------------------------------|
F|-------------------------------------------------------------|
C|-------------------------------------------------------------|
G|--4p0------5----8----4p0--------5----8-----4p0-----5---8-----|
C|--------0----0---------------0----0--------------0---0-------|

D|--------------------------------------------------|
A|--------------------------------------------------|
F|--------------------------------------------------|
C|--------------------------------------------------|
G|-4p0-------5----4---------------------------------|
C|-------0-----0------------------------------------|

D|-------------------------------------------------------------|
A|-------------------------------------------------------------|
F|-------------------------------------------------------------|
C|-------------------------------------------------------------|
G|--4p0------5----8----4p0--------5----8-----4p0-----5---8-----|
C|--------0----0---------------0----0--------------0---0-------|

D|--------------------------------------------------|
A|--------------------------------------------------|
F|--------------------------------------------------|
C|--------------------------------------------------|
G|-4p0-------5----4---------------------------------|
C|-------0-----0------------------------------------|



Then the 0:00 intro repeats, followed by this verse part.
            
Submit corrections

comments powered by Disqus
↑ Back to top | Black Dahlia Murder Tabs for Black Valor. Lyrics for acoustic guitar and electric guitar. 1 Tablatures and chords are parodies/interpretations of the original songs. You may use it for private study, scholarship, research or language learning purposes only