>
 >
A Vulgar Picture

A Vulgar Picture Bass Tabs

Black Dahlia Murder - A Vulgar Picture chords, tabs, tablatures, lyrics

Guitar lessons | Add/correct | Request | Top 50 tabs Artists:  A B C D E F G H I J K L M N O P Q R S T U V W X Y Z 0-9

A Vulgar Picture Bass Tabs – Black Dahlia Murder

CD, Sheet music, Poster

Do you like A Vulgar Picture? Share with your friends now
Bass TabsTabs
Drop C

F-------------------------------------------------------------------------------------|
  C-----------------------------------------------------------------------------------|
  G------5-------5-------5----1--0---------5------5-----5-----------------------------|
  C---000-----000----000--------------000-----000----000--------8--7--5--7--5--4--1---|

  F    --------------------------------------------------------------------|
  C    --------------------------------------------------------------------|
  G    --------------------------------------------------------------------|
  C    ---000---8---000---8--000---8---10---8------8"-7"-5"-4"-5"-7"-8"-7"-|


  Verse
  F--------------------------------------------------------------------------------|
  C--------------------------------------------------------------------------------|
  G-----3----5---5h6-------3----5-------------3----5---5h6-------------------------|
  C--00----0---0--------00----0-----5h4----00----0---0-----------5---7---8---7---4-|

  Pre-Chorus
  F  -------------------------------------------------------------------|
  C --------------------------------------------------------------------|
  G ----------8--7---10---8---10---12-------5--8----7------4----7-----5-|
  C  -----00---0--0----0---0----0---------55------5-----44---4------4---|

  Chorus
  F---------------------------------------------------------------------------------|
  C---------------------------------------------------------------------------------|
  G---------------------------------------------------------------------------------|
  C-----5-555-555-555--8-7h8---1-111-111-111--8-7-10--8--5---555--555---555--8--7h8-|

  F -------------------------------------------------------------------------|
  C -------------------------------------------------------------------------|
  G -------------------------------------------------------------------------|
  C ---4----1-------5-------8--7h8----1--------8--7--10--8--5--8--7h8--4---1-|


    Verse
    Intro


    Solo

   F    ---------------------------------------------------------|
   C    ---------------------------------------------------------|
   G    ---------------------------------------------------------|
   C    -----00000000000---55-----8--55--8---55----8----55-----8-|

   F -----------------------------------------------------------------|
   C -----------------------------------------------------------------|
   G ------3h5--------------------------------3h5---------------------|
   C --000-----000-5--7--8--7--5--4--1----000-------4--5--7--5--4--8*-|


   F  -------------------------------------------------------------------|
   C --------------------------------------------------------------------|
   G ----------8--7---10---8---10---12-------5--8----7------4----7-----5-|
   C  -----00---0--0----0---0----0---------55------5-----44---4------4---|


  F---------------------------------------------------------------------------------|
  C---------------------------------------------------------------------------------|
  G---------------------------------------------------------------------------------|
  C-----5-555-555-555--8-7h8---1-111-111-111--8-7-10--8--5---555--555---555--8--7h8-|


F----------------------------------------------------------------------------|
C----------------------------------------------------------------------------|
G----------------------------------------------------------------------------|
C---4----1-------5-------8--7h8----1--------8--7--10--8--5--8--7h8--4---1----|

   F -----------------------------------------------------|
   C -----------------------------------------------------|
   G -----------------------------------------------------|
   C -----000000--5--7--8--000000-4--6-7-000000---5--7--8-|

   F -----------------------------------------------------------|
   C -----------------------------------------------------------|
   G -----------------------------------------------------------|
   C ---5--00000000--5--4--5--8--7-0000000-8-000-7-000-8-000-8*-|


   F -------------------------------------------------------------|
   C -------------------------------------------------------------|
   G ---5-----3------5------8-6-5-6-5-3--5------3-----------------|
   C -----000---000-----000-----------------000---000---4--5--4-1-|





Comments


Popular Black Dahlia Murder tabs & chords
Nocturnal Bass Tabs
Dave Goes To Hollywood Tabs
Hymn For The Wretched Tabs
I Only Worship What You Bleed Tabs
I Will Return Intro Tabs
Necropolis 1 Tabs
Nocturnal Intro Tabs
Novelty Crosses Tabs
Thy Horror Cosmic Tabs
Unhallowedfuneral Thirst Tabs


Song lyrics



↑ Back to top | Tablatures and chords are parodies/interpretations of the original songs. You may use it for private study, scholarship, research or language learning purposes only
© 2014 AZChords.com Contact us | Privacy policy | DMCA | Add/correct tabs | Request tabs | Top 50 tabs