» » »

Black Crowes, Twice As Hard Tabs (ver.1)

Artists:  A B C D E F G H I J K L M N O P Q R S T U V W X Y Z # 

Twice As Hard Tabs (ver.1)

Black Crowes Tabs
Rating:
0/5 (0 votes)
Twice As Hard lessons Tabs too difficult? Try these video lessons and learn fast
                Here's some of The Black Crowes "Twice as Hard" (notice open G tuning):

 Intro: (\ means slide, PO means pull off)
 
D ----------------------------------------------------------------------------
B 0-0-------5------5PO0--------------------------------------------------------
G 0-0-4\2-0-5------5PO0--reapeat-about-3x--------------------------------------
D 0-0-------5------5PO0--------------------------------------------------------
G 0-0-------5------5PO0--------------------------------------------------------
D ----------------------------------------------------------------------------
  at end of third time:  
D ----------------------------------------------------------------------------
B -6-----5-5----------------------------5PO0-----------------------------------
G -5-----5-5-3\20-3\20-3\20-instead of--5PO0-----------------------------------
D -7-----5-5----------------------------5PO0-----------------------------------
G -5-----5-5----------------------------5PO0-----------------------------------
D ----------------------------------------------------------------------------
 
 Verse:
 
D ----------------------------------------------------------------------------
B -0-0--------5-5-5-5-5-------------------------------------------------------
G -0-0--------5-5-5-5-5---repeat as necessary---------------------------------
D -0-0--------5-5-5-5-5-------------------------------------------------------
G -0-0--------5-5-5-5-5-------------------------------------------------------
D ----------------------------------------------------------------------------

 Bridge (I'm go-o-o-one, Tell me I'm wro-o-o-ong) alternates between these
                       two chords.  I can't remember the order or how many
                       times.

D ----------------------------------------------------------------------------
B --5-----6-------------------------------------------------------------------
G --5-----5-------------------------------------------------------------------
D --5-----7-------------------------------------------------------------------
G --5-----5-------------------------------------------------------------------
D ----------------------------------------------------------------------------

 The chorus (Twi-i-ice as ha-ard) is just like the intro.

 Obviously, I have made little effort to accurately represent the timing.

~
~


-- 
*******************************************************************************
 violator--"Sorry officer.  I think there was something wrong with my gas
           pedal."
 policeman--"Yes, it must have been deeply depressed."
 Later, 
            

comments powered by Disqus
↑ Back to top | Black Crowes Tabs for Twice As Hard. Lyrics for acoustic guitar and electric guitar. Tablatures and chords are parodies/interpretations of the original songs. You may use it for private study, scholarship, research or language learning purposes only