» » »

Black Crowes, She Talks To Angels Tabs (ver.1)

Artists:  A B C D E F G H I J K L M N O P Q R S T U V W X Y Z # 

She Talks To Angels Tabs (ver.1)

Black Crowes Tabs
 Rating:
4/5 (4 votes)
She Talks To Angels lessons Tabs too difficult? Try these video lessons and learn fast
                SHE TALKS TO ANGELS
                           Black Crowes
                       Shake Your Moneymaker

The first thing you want to do is tune your guitar.  Rich Robinson plays 
in open D tuning to get a loose feel for the strings, but most 
transcriptions that've been published are in open E.
For open E tuning, you start with the regular tuning, EADGBE (low to 
high), and you tune the ADG strings up to BEG# respectively.  So you end 
up with EBE(G#)BE.  
For open D tuning, you'll like this a lot better, you do the same and 
then drop every string a whole step: you end up with DAD(F#)AD.  Rich 
then capos at the 2nd fret, so you end up with open E-tuning anyway, but 
there is a big difference in the feel.


-----0-------0----------0------------0-;--0-0-0---0---0--------0--0----
-4h5---4\2-0---0------0--------------0-;--0-0-0---0---0--0-----0--0----
------------------0h1-----1--1p0-----0-;--0-0-0---0---0--1--0--1--0----
----------------------------------0--0-;--0-0-0---0---0--2--0--2--0----
-------------------------------------0-;--0-0-0---0---0--2--0--2--0----
---------------------------------------;--0-0-0---0---0--0--0--0--0----
(Repeat part before ; once)


N.H.  N.H
-12---14---------0---0-0--------0--0--------------------------------------
-12---14---------0---0-0--0-----0--0-----------------------------------0--
-12---14---------0---0-0--1--0--1--0------------0-3p0----5p0----3p0-------
-12---14---------0---0-0--2--0--2--0----0--2/4--------0------0-------0----
-12---14---------0---0-0--2--0--2--0--------------------------------------
-12---14---------0---0-0--0--0--0--0--------------------------------------


--------0---0-0--0--0--0--0----0---0---0---0---0---0-------------------
--------0---0-0--0--0--0--0------5---4---2---0--------------0----------
--------0---0-0--1--0--1--0----------------------1---1p0---------------
-2--0---0---0-0--2--0--2--0-------------------------------0---2--0-----
--------0---0-0--2--0--2--0--------------------------------------------
--------0---0-0--0--0--0--0--------------------------------------------


-0---0-0--0--0--0--0--]
-0---0-0--0--0--0--0--]  That's the introduction:  right after this,
-0---0-0--1--0--1--0--]  Chris sings 'She never mentions the word addiction'
-0---0-0--2--0--2--0--]
-0---0-0--2--0--2--0--]
-0---0-0--0--0--0--0--]


..addiction                    ...certain company   
-0-0-0---0---0-0--0--0--0--0--------------0--0--0-0--0--0--0--0-----
-0-0-0---0---0-0--0--0--0--0--------------0--0--0-0--0--0--0--0-----
-0-0-0---0---0-0--1--0--1--0--------------0--0--0-0--1--0--1--0-----
-0-0-0---0---0-0--2--0--2--0--------------0--0--0-0--2--0--2--0-----
-0-0-0---0---0-0--2--0--2--0--------------0--0--0-0--2--0--2--0-----
-0-0-0---0---0-0--0--0--0--0--------------0--0--0-0--0--0--0--0-----

                              B            A  
-0-0-0-0--0--0--0-0-0---------7--7---------5-----5-5---0-0-0--0--0-0--
-5-5-5-5--5--5--5-5-5---------7--7-----7---5--5--5-5---0-0-0--0--0-0--
------------------------------7--7-----7---5--5--5-5---0-0-0--0--0-0--
------------------------------7--7-----7---5--5--5-5---0-0-0--0--0-0--
------------------------------7--7--7--7---5--5--------0-0-0--0--0-0--
------------------------------7--7--7--7---5--5--------0-0-0--0--0-0--

                'She don't know no lover....'
-0--0--0--0--;---5--5----5---------------------------
-0--0--0--0--;---5--5----5-----------0---------------
-1--0--1--0--;---5--5--5-5--0--------0----1--1--0--0-
-2--0--2--0--;---5--5--5-5--0--2--2--0----2--2--0----
-2--0--2--0--;---5--5--5-5--0--2--2--0----2--2--0----
-0--0--0--0--;---5--5--5-5--0--------0----------0----

Well, that's all the parts.  The intro parts are repeated in the middle 
of the song.  That last stuff after the semicolons is the breakdown right 
before the intro is repeated.  The stuff before the semicolons is the 
chorus riff.  Hope this helps.  Enjoy.  And remember, all this tab is 
recordes as if the capo is invisible and the nut is at the second fret 
(for dropped D).

						_Denny

The teacher stands at the head of the class, but the lesson he can't recall.
            
Submit corrections

comments powered by Disqus
↑ Back to top | Black Crowes Tabs for She Talks To Angels. Lyrics for acoustic guitar and electric guitar. Tablatures and chords are parodies/interpretations of the original songs. You may use it for private study, scholarship, research or language learning purposes only