» » »

Prayer For The Little Man Tabs (ver.1)

Artists:  A B C D E F G H I J K L M N O P Q R S T U V W X Y Z # 

Prayer For The Little Man Tabs (ver.1)

Blackberry Smoke
Rating:
0/5 (0 votes)

Hard to play? Try these video lessons and learn fast.
                Blackberry Smoke
Prayer for the Little Man

*sweet_inc*

standard tuning


intro
e|----5-5-5-5-3-2-0-2---5-5-5-5-3-2-0-2---5-5-5-5-3-2-0-2--|
B|----3-3-3-3-3-3-3-3---3-3-3-3-3-3-3-3---3-3-3-3-3-3-3-3--|
G|---------------------------------------------------------|
D|---------------------------------------------------------|
A|(0)-----------------3-----------------2------------------|
E|---------------------------------------------------------|

e|----3-3-3-3-3-2-0-2----|
B|----3-3-3-3-3-3-3-3----|
G|-----------------------|
D|-----------------------|
A|--3--------------------|
E|-----------------------|

verse chords
e|--2-----1--3--2-----1--0--0--0--0---|
B|--3--3--1--3--3--3--1--0--2--0--2---|
G|--2--3--2--0--2--3--2--0--2--0--2---|
D|--0--3--3--0--0--3--3--2--2--2--2---|
A|-----1--3--2-----1--3--2--0--2--0---|
E|-----------3-----------0-----0------|

chorus
e|--2--3--3--3--2--3--3-----3--3--3--3---|
B|--3--3--3--3--3--3--3-----3--3--3--3---|
G|--2--0--0--0--2--0--0--2--0--0--0--2---|
D|--0--2--0--2--0--2--0--2--0--0--2--0---|
A|-----3--2--3-----3--2--0--2--1--3------|
E|--------------------------3------------|

second and further verses
e|--2-----1--3--2-----1-----------------|
B|--3-----1--3--3-----1-----------------|
G|--2--3--2--0--2--3--2-----2-----2-----|
D|--0--3--3--0--0--3--3--2--2--2--2-----|
A|-----1--3--2-----1--3--2--0--2--0-----|
E|--------1--3--------1--0-----0--------|

behind solo
e|---------------------|
B|---------------------|
G|--3-----3--2-----5---|
D|--3--3--3--2--5--5---|
A|--1--3--1--0--5--3---|
E|-----1--------3------|
            
Hard to play? Try these video lessons and learn fast. | Correct




comments powered by Disqus
↑ Back to top | Tablatures and chords are parodies/interpretations of the original songs. You may use it for private study, scholarship, research or language learning purposes only