» » »

Bishop Stephen, It Might Be You Chords (ver.1)

Artists:  A B C D E F G H I J K L M N O P Q R S T U V W X Y Z # 

It Might Be You Chords (ver.1)

Bishop Stephen Tabs
Rating:
0/5 (0 votes)
Hard to play? Try these video lessons and learn fast.
                Stephen Bishop
Original Soundtrack - Tootsie

Written by Alan Bergman, Marilyn Bergman, Dave Grusin
Performed by Stephen Bishop

[Actually in F#; capo 4th fret]

The chords should be played in this positions
	D5	D5/F#	  D5/G	   D5/A
e:------0--------0--------0--------0--------|
B:------3--------3--------3--------3--------|
G:------2--------2--------2--------2--------|
D:------0--------0--------0--------0--------|
A:------X--------X--------X--------0--------|
E:------X--------2--------3--------X--------|

Using the above chord positions, play these patterns for each of the chords

Intro
    D5                        D5/F#
e:--------------0-----0h2-----------------0-----0h2-----|
B:--------3----------------3--------3----------------3--|
G:----2------2-----2------------2------2-----2----------|
D:--0---0-------------------------0---------------------|
A:------------------------------------------------------|
E:----------------------------2-------------------------|

    D5/G                      D5/A 
e:--------------0-----0h2-------------------------------|
B:--------3----------------3--------3-----3h5-3-----3---|
G:----2------2-----2------------2------2---------2------|
D:------0-------------------------0---------------------|
A:----------------------------0-------------------------|
E:--3---------------------------------------------------|

Repeat the 1st 2 bars above then play this:
(This riff is also played on various parts of the song)
    D5             D5/F#          D5/G               D  
e:------------5-5------------5-5------------5-5-7-3--2--------||
B:-----3----3---------3----3---------3----3------------3---3--||
G:--------2--------------2--------0-----2----------------2----||
D:--0--------------4------------------------------------------||
A:------------------------------------------------------------||
E:------------------------------------------------------------||

Lyrics:
     Time... I've been passing time watching trains go by
     All of my life...
     Lying on the sand, watching seabirds fly
     Wishing there would be
     Someone waiting home for me...

     Something's telling me it might be you
     It's telling me it might be you...
     All of my life...

     Looking back as lovers go walking past...
     All of my life
     Wondering how they met and what makes it last

     If I found the place
     Would I recognize the face?

     Something's telling me it might be you
     Yeah, it's telling me it might be you

     So many quiet walks to take
     So many dreams to wake
     And we've so much love to make

     I think we're gonna need some time
     Maybe all we need is time...
     And it's telling me it might be you
     All of my life...
                                 
     I've been saving love songs and lullabies
     And there's so much more
     No one's ever heard before...
                                  
     Something's telling me it might be you
     Yeah, it's telling me it must be you
     And I'm feeling it'll just be you
     All of my life...
     It's you..
     It's you...
     I've been waiting for all of my life...

     Maybe it's you...
     Maybe it's you...
     I've been waiting for all of my life...

     Maybe it's you...
     Maybe it's you...
     I've been waiting for all of my life...





Key:
/ -slide up
\ -slide down
h - hammer on
p -pull off
x -muted string
p.m. -palm mute
b -bend

Hi to all the people of the Philippines especially all the 
students of CSA!
            

comments powered by Disqus
↑ Back to top | Bishop Stephen Chords for It Might Be You. Lyrics for acoustic guitar and electric guitar. Tablatures and chords are parodies/interpretations of the original songs. You may use it for private study, scholarship, research or language learning purposes only