>
 >
Skinny Love

Skinny Love Guitar Tabs

Birdy - Skinny Love chords, tabs, tablatures, lyrics

Guitar lessons | Add/correct | Request | Top 50 tabs Artists:  A B C D E F G H I J K L M N O P Q R S T U V W X Y Z 0-9

Skinny Love Guitar Tabs – Birdy

CD, Sheet music, Poster

Do you like Skinny Love? Share with your friends now
ChordsChords v2Chords v3Chords v4Chords v5Chords v6Chords v7Chords v8Chords v9TabsTabs v2
-------------------------------------------------------------------------------
-------------------------------------------------------------------------------

Tuning: Capo the 4th fret

* = do arpeggio

Intro: 
  Am      F       C               Am      F       C
  *       *       *               *       *       *
e|---------------------------------------------------------------------------|
B|1-------1-------1-------0-------1-------1-------1-------0---1--------------|
G|2-------2-------0---------------2-------2-------0-----------2--------------|
D|2-------3-------2---------------2-------3-------2---------2----------------|
A|---------------------------------------------------------------------------|
E|---------------------------------------------------------------------------|

Verse 1:
  Am      F       C               Am      F       C
  *       *       *               *       *       *
e|---------------------------------------------------------------------------|
B|1-------1-------1-------0---1---1-------1-------1-------0---1--------------|
G|2-------2-------0-----------2---2-------2-------0-----------2--------------|
D|2-------3-------2---------2-----2-------3-------2---------2---2------------|
A|---------------------------------------------------------------------------|
E|---------------------------------------------------------------------------|

  Come on skinny love just last the year.
                                  Pour a little salt we were never here.

  Am      F       C               Dm      Am
  *       *                       *       *       
e|--------------------0-------0---1-0----------------------------------------|
B|1-------1-----------1-------1---3---3-1-1---------------10-----------------| -- that's 1,0 not 10
G|2---2---2---2-----0---0---0---0-2-------2-----------------20---------------|
D|--2---2---3---3-----------------0-------2----------------------------------|
A|0-------0-------3-------3--------------------------------------------------|
E|---------------------------------------------------------------------------|

  My my my my my my my my my my my my,
                                   Staring at the sink of blood and crushed veneer.
                           
  Am      F       C               Am     F       C           G
                          *   *                              
e|--------------------0-------0-----------------------0-------0---------------|
B|----1-------1-------1---3---1---1---1-------1-------1-------3-3-------------|
G|----2-------2-----0---0-0-0-0-0-----2---2---2-----0---0---0-0---------------|
D|--2---2-----------------2---2-----2---2---3---3-------------X---------------|
A|0---------3---3-3-------3-------0---------------3-------3---2---------------|
E|--------1-------------------------------1-----------------------------------|

  (I) tell my love to wreck it all,
                                  Cut out all the ropes and let me fall.

  Am      F       C               Dm      Am
  *                                       *
e|--------------------0-------0---1-0----------------------------------------|
B|1---1---1---1-------1-------1---3---3-1-1-------------------0--------------|
G|2---2---2---2-----0---0---0---0-2-------2----------------------------------|
D|--2---2-X-3---3-----------------0-------2---------------------2------------|
A|0-------3-------3-------3---------------0-------------------2--------------|
E|--------1------------------------------------------------------------------|

  My my my my my my my my my my my my,
                                   Right at the moment, this orders tall.

Chorus:
  C               G       Am      C               G       Am
e|----0-------0-------0---------------0-------0-------0---------------|
B|----1-------1-------3-3-1---1-------1-------1-------3-3-1---1-------|
G|--0---0---0---0---0---------2-----0---0---0---0---0---------2-------|
D|--------------------------2---2---------------------------2---2-----|
A|3-------3-------2-------0-------3-------3-------2-------0-----------|
E|--------------------------------------------------------------------|

  And I told you to be patient,
                                   And I told you to be fine.
  And I told you to be balanced,
                                   And I told you to be kind.

  C                G      Am      C               G       Am
e|----0-------0-------0---------------0-------0-------0-----------|
B|----1-------1-------3-3-1---1-0-----1-------1-------3-3-1---1---|
G|--0---0---0---0---0---------2-----0---0---0---0---0---------2---|
D|--------------------------2-------------------------------2---2-|
A|3-------3-------2-------0-------3-------3-------2-------0-------|
E|----------------------------------------------------------------|

  And in the morning I'll be with you,
                                   But it will be a different kind.
  Cause I'll be holding all the tickets,
                                   And you'll be holding all the fines.

Interlude:
                  *
e|------------------------|
B|----1-3-1---1---1-------|
G|----------------2-------|
D|--2-------2---2-2-------|
A|0-------0-------0-------|
E|------------------------|

Verse 2:
  Am      F       C               Am     F       C           G
                          *   *                       
e|--------------------0-------0----------------------0-------0---------------|
B|----1-------1-------1---3---1---1---1------1-------1-------3-3-------------|
G|----2-------2-----0---0-0-0-0-0-----2--2---2-----0---0---0-0---------------|
D|--2---2-----------------2---2-----2--2---3---3-------------X---------------|
A|0---------3---3-3-------3-------0--------------3-------3---2---------------|
E|--------1------------------------------1-----------------------------------|

  Come on skinny love what happened here?
                                  Suckle on the hope and light brassiere.

  Am      F       C               Dm      Am
  *       *                       *       *
e|--------------------0-------0---1-0----------------------------------------|
B|1---1---1---1-------1-------1---3---3-1-1-------------------0--------------|
G|2---2---2---2-----0---0---0---0-2-------2----------------------------------|
D|--2---2-X-3---3-----------------0-------2---------------------2------------|
A|0-------3-------3-------3---------------0-------------------2--------------|
E|--------1------------------------------------------------------------------|

  My my my my my my my my my my my my,
                                   Sullen load is full, so slow on the split.

Chorus:
  C               G       Am      C               G       Am
e|----0-------0-------0---------------0-------0-------0---------------|
B|----1-------1-------3-3-1---1-------1-------1-------3-3-1---1-------|
G|--0---0---0---0---0---------2-----0---0---0---0---0---------2-------|  
D|--------------------------2---2---------------------------2---2-----|
A|3-------3-------2-------0-------3-------3-------2-------0-----------|
E|--------------------------------------------------------------------|

  And I told you to be patient,
                                   And I told you to be fine.
  And I told you to be balanced,
                                   And I told you to be kind.

  C               G       Am      C               G       Am
e|----0-------0-------0---------------0-------0-------0-----------|
B|----1-------1-------3-3-1---1-0-----1-------1-------3-3-1---1---|
G|--0---0---0---0---0---------2-----0---0---0---0---0---------2---|
D|--------------------------2-------------------------------2---2-|
A|3-------3-------2-------0-------3-------3-------2-------0-------|
E|----------------------------------------------------------------|

  And now all your love is wasted,
                                   And who the hell was I?
  Cause now I'm breaking at the britches,
                                   And and the end of all your lies.

Interlude:
                  *
e|------------------------|
B|----1-3-1---1---1-------|
G|----------------2-------|
D|--2-------2---2-2-------|
A|0-------0-------0-------|
E|------------------------|

Bridge:
  C               G       Am      C               G       Am
  *               *               *               *
e|0---------------0---------------0---------------0------------------------|
B|5---------------3---3---1-----3-5---------------3---3---1----------------|
G|5---------------4-------2-------5---------------4-------2---2-------2----|
D|----------------------------------------------------------2---2---2---2--|
A|-------------------------------------------------------------------------|
E|-------------------------------------------------------------------------|

Who will love you? Who will fight?
                                  And who will fall, far behind?
          * 
e|----------------|
B|1-------1-------|
G|2---2---2-------|
D|--2---2-2-------|
A|----------------|
E|----------------|


Verse 2:
  Am      F       C               Am      F       C           G
                          *               *                   *
e|--------------------0---0---0-------------------0---0---0---0--------------|
B|1---1-------1-------1---1-----3-1---1---1-----0-1---1---1---3-3------------|
G|----2-------2-----0---0-0-0---------2---2---2-----0---0---0-0--------------|
D|--2---2---------------------------2---2-3-3-3---------------X--------------|
A|0---------3---3-3---------------0---------------3-------3---2--------------|
E|--------1------------------------------------------------------------------|

  Come on skinny love.

  Am      F       C               Am     F       C           G 
                              *                              *
e|--------------------0-------0-----------------------0---0-------|
B|----1-------1-------1-------3-3-1---1-------1-------1-------3-1-|
G|----2-------2-----0---0---0-0-------2---2---2-----0---0---0-0---|
D|--2---2---------------------X-----2---2---3---3-------------X---|
A|0---------3---3-3-------3---2---0---------------3-------3---2---|
E|--------1-------------------------------1-----------------------|

  My my my my my my my my my my my my,
                                      My my my my my my my my my my my my.

Outro:
  Am      F       C           G   C       F       C        
                  *                                       *
e|----------------0------00-------------------------------0------------------|
B|1---1-0-1---1-3-1---1-1-----3-0-1------11-------1---1---1------------------|
G|----2---2---------0--0----0---------2-2-----2---0-0---0-0------------------|
D|--2-------3-----------------------2--2------3------------------------------|
A|0---------------3-----------2---0---------3---3-3--------------------------|
E|--------1-------------------------------1----------------------------------|


====================================

* = do arpeggio

====================================





Comments


Popular Birdy tabs & chords
1901 Chords
Ill Never Forget You Chords
People Help The People 1 Chords
People Help The People 2 Chords
Shelter Chords
Skinny Love 2 Chords
Skinny Love 6 Chords
Without A Word Chords
Young Blood Chords
Skinny Love 1 Tabs


Song lyrics



↑ Back to top | Tablatures and chords are parodies/interpretations of the original songs. You may use it for private study, scholarship, research or language learning purposes only
© 2014 AZChords.com Contact us | Privacy policy | DMCA | Add/correct tabs | Request tabs | Top 50 tabs