>
 >
Head In My Hands

Head In My Hands Guitar Tabs

Birds Of Tokyo - Head In My Hands chords, tabs, tablatures, lyrics

Guitar lessons | Add/correct | Request | Top 50 tabs Artists:  A B C D E F G H I J K L M N O P Q R S T U V W X Y Z 0-9

Head In My Hands Guitar Tabs – Birds Of Tokyo

CD, Sheet music, Poster

Do you like Head In My Hands? Share with your friends now
Tabs
For the most part I think this is correct. The 5's along the top 3 strings are
with a 10-10-12 but I wasn't quite sure which to use.As are the 6-8-8's with 1-1-1 along
top.

I did my best with the solos but they're not perfect. Enjoy.
Scott.


Drop D   DADGBE


Verse:

E|---------    |---------|
B|---------    |---------|
G|-8-8-8-8-    |---------|
D|-8-8-8-8-    |-5-5-5-5-|
A|-6-6-6-6-    |-5-5-5-5-|
D|--------- x4 |-5-5-5-5-| x4    Play this part 4 times


Prechorus:

[I hate my melodies, they're all the same...]

E|----------               |---------|
B|----------               |---------|
G|-8--------               |---------|
D|-6--------               |-5-5-5-5-|
A|-6--------               |-5-5-5-5-|
D|----------  (Let Ring)   |-5-5-5-5-| x4


Chorus:

E|---------     |---------   |---------     |---------|
B|---------     |---------   |---------     |---------|
G|---------     |---------   |---------     |-6-6-6-6-|
D|-6-6-6-6-     |-8-8-8-8-   |-3-3-3-3-     |-6-6-6-6-|
A|-6-6-6-6-     |-8-8-8-8-   |-3-3-3-3-     |-4-4-4-4-|
D|-6-6-6-6- x3  |-8-8-8-8-   |-3-3-3-3- x3  |---------|

E|---------     |--------    |---------     |---------|
B|---------     |--------    |---------     |---------|
G|---------     |--------    |---------     |---------|
D|-6-6-6-6-     |-8-8-8-8    |-3-3-3-3-     |-2-2-2-2-|
A|-6-6-6-6-     |-8-8-8-8    |-3-3-3-3-     |-2-2-2-2-|
D|-6-6-6-6- x3  |-8-8-8-8    |-3-3-3-3- x3  |-2-2-2-2-|


[REPEAT VERSE]


E|---------     |---------   |---------     |---------|
B|---------     |---------   |---------     |---------|
G|---------     |---------   |---------     |-6-6-6-6-|
D|-6-6-6-6-     |-8-8-8-8-   |-3-3-3-3-     |-6-6-6-6-|
A|-6-6-6-6-     |-8-8-8-8-   |-3-3-3-3-     |-4-4-4-4-|
D|-6-6-6-6- x3  |-8-8-8-8-   |-3-3-3-3- x3  |---------|  Play this part twice


[REPEAT CHORUS]


Bridge:

E|---------     |---------   |---------     |---------|
B|---------     |---------   |---------     |---------|
G|---------     |---------   |---------     |-6-6-6-6-|
D|-6-6-6-6-     |-8-8-8-8-   |-3-3-3-3-     |-6-6-6-6-|
A|-6-6-6-6-     |-8-8-8-8-   |-3-3-3-3-     |-4-4-4-4-|
D|-6-6-6-6- x3  |-8-8-8-8-   |-3-3-3-3- x3  |---------|  Play this part twice

Solo 1 (Guitar II):

E|-s4---4-3-4-3-4---3-4s6-6-4-3----s4---4-3-4-3-4---3-s8-8-4-3-|
B|-------------------------------------------------------------|
G|-------------------------------------------------------------|
D|-------------------------------------------------------------|
A|-------------------------------------------------------------|
D|-------------------------------------------------------------|  x2


[REPEAT VERSE]

[REPEAT PRECHORUS]


E|--------------             |-------    |---------     |--------------|
B|--------------             |-------    |---------     |--------------|
G|--------------             |-------    |---------     |-6-6-6-6------|
D|-6------------             |-8-----    |-3-3-3-3-     |-6-6-6-6------|
A|-6------------             |-8-----    |-3-3-3-3-     |-4-4-4-4--|
D|-6------------ (Let Ring)  |-8-----    |-3-3-3-3- x3  |--------------|


E|---------     |---------   |---------     |---------|
B|---------     |---------   |---------     |---------|
G|---------     |---------   |---------     |-6-6-6-6-|
D|-6-6-6-6-     |-8-8-8-8-   |-3-3-3-3-     |-6-6-6-6-|
A|-6-6-6-6-     |-8-8-8-8-   |-3-3-3-3-     |-4-4-4-4-|
D|-6-6-6-6- x3  |-8-8-8-8-   |-3-3-3-3- x3  |---------|

[I'm here with you]


E|---------     |---------   |---------     |---------|
B|---------     |---------   |---------     |---------|
G|---------     |---------   |---------     |-6-6-6-6-|
D|-6-6-6-6-     |-8-8-8-8-   |-3-3-3-3-     |-6-6-6-6-|
A|-6-6-6-6-     |-8-8-8-8-   |-3-3-3-3-     |-4-4-4-4-|
D|-6-6-6-6- x3  |-8-8-8-8-   |-3-3-3-3- x3  |---------|   Play this part twice

Outro Solo (Guitar II):

E|----------------------------------------------------------------|
B|-8h9-8----------------8-11-11-11-8h9-8--------------------------|
G|---------------8-10-8--------------------------8-10-8-8-8-8-8-8-|
D|-------10-8-10-------------------------10-8-10------------------|
A|----------------------------------------------------------------|
D|----------------------------------------------------------------|

E|--------------------------------------------------------------------|
B|-8h9-8----------------8-11-11-11-8h9-8------------------------------|
G|---------------8-10-8-----------------------------------------------|
D|-------10-8-10-------------------------10-8-10---10-10-10-9-9-9-9-8-|
A|--------------------------------------------------------------------|
D|--------------------------------------------------------------------|

Outro

E|---------     |---------   |---------     |---------|
B|---------     |---------   |---------     |---------|
G|---------     |---------   |---------     |-6-6-6-6-|
D|-6-6-6-6-     |-8-8-8-8-   |-3-3-3-3-     |-6-6-6-6-|
A|-6-6-6-6-     |-8-8-8-8-   |-3-3-3-3-     |-4-4-4-4-|
D|-6-6-6-6- x3  |-8-8-8-8-   |-3-3-3-3- x3  |---------|

E|---------     |---------   |---------     |-----------------|
B|---------     |---------   |---------     |-----------------|
G|---------     |---------   |---------     |-----------------|
D|-6-6-6-6-     |-8-8-8-8-   |-3-3-3-3-     |-2-2-2-2--1------|
A|-6-6-6-6-     |-8-8-8-8-   |-3-3-3-3-     |-2-2-2-2--1------|
D|-6-6-6-6- x3  |-8-8-8-8-   |-3-3-3-3- x3  |-2-2-2-2--1------| (Let Ring)





Comments


Popular Birds Of Tokyo tabs & chords
Black Sheets Chords
Plans Chords
Plans 2 Chords
This Fire Chords
Circles Tabs
Off Kilter Tabs
Rose Tabs
Silhouettic 1 Tabs
The Gap Tabs
Wayside Ukulele


Song lyrics



↑ Back to top | Tablatures and chords are parodies/interpretations of the original songs. You may use it for private study, scholarship, research or language learning purposes only
© 2014 AZChords.com Contact us | Privacy policy | DMCA | Add/correct tabs | Request tabs | Top 50 tabs