>
 >
Broken Bones Intro

Broken Bones Intro Guitar Tabs

Birds Of Tokyo - Broken Bones Intro chords, tabs, tablatures, lyrics

Guitar lessons | Add/correct | Request | Top 50 tabs Artists:  A B C D E F G H I J K L M N O P Q R S T U V W X Y Z 0-9

Broken Bones Intro Guitar Tabs – Birds Of Tokyo

CD, Sheet music, Poster

Do you like Broken Bones Intro? Share with your friends now
Tabs
Band: Birds Of Tokyo


Im pretty sure this the first tab of this song out, This is just the intro


Clean

E||--10-10-10-10-10-10-10-10-10-10-10-10-10-10-10-10-|--8-8-8-8-8-8-8-8-8-8-8-8-8-8-8-8-|
B||---9--9--9--9--9--9--9--9--9--9--9--9--9--9--9--9-|--8-8-8-8-8-8-8-8-8-8-8-8-8-8-8-8-|
G||---8--8--8--8--8--8--8--8--8--8--8--8--8--8--8--8-|--8-8-8-8-8-8-8-8-8-8-8-8-8-8-8-8-|
D||--------------------------------------------------|----------------------------------|
A||--------------------------------------------------|----------------------------------|
E||--------------------------------------------------|----------------------------------|



--11-11-11-11-11-11-11-11-11-11-11-11-11-11-11-11-|--8-8-8-8-8-8-8-8-8-8-8-8-8-8-8-8-|
---8--8--8--8--8--8--8--8--8--8--8--8--8--8--8--8-|--6-6-6-6-6-6-6-6-6-6-6-6-6-6-6-6-|
---8--8--8--8--8--8--8--8--8--8--8--8--8--8--8--8-|--5-5-5-5-5-5-5-5-5-5-5-5-5-5-5-5-|
--------------------------------------------------|----------------------------------|
--------------------------------------------------|----------------------------------|
--------------------------------------------------|----------------------------------|



--10-10-10-10-10-10-10-10-10-10-10-10-10-10-10-10-|--8-8-8-8-8-8-8-8-8-8-8-8-8-8-8-8-|
---9--9--9--9--9--9--9--9--9--9--9--9--9--9--9--9-|--8-8-8-8-8-8-8-8-8-8-8-8-8-8-8-8-|
---8--8--8--8--8--8--8--8--8--8--8--8--8--8--8--8-|--8-8-8-8-8-8-8-8-8-8-8-8-8-8-8-8-|
--------------------------------------------------|----------------------------------|
--------------------------------------------------|----------------------------------|
--------------------------------------------------|----------------------------------|


                                    
--11-11-11-11-11-11-11-11-11-11-11-11-11-11-11-11-|
---8--8--8--8--8--8--8--8--8--8--8--8--8--8--8--8-|
---8--8--8--8--8--8--8--8--8--8--8--8--8--8--8--8-|
--------------------------------------------------|
--------------------------------------------------|
--------------------------------------------------|


In the last three bars the bass bit goes like this:

                                                                          
G||-----|-----|------|
D||-----|-----|------|
A||-----|-----|------|
E||--4~-|--8~-|--11~-|



Next Part



    A#m  A#m  A#m  A#m     A#m  A#m  A#m  A#m   
                                                             
E||--6----6----6----6----|--6----6----6----6----|
B||--6----6----6----6----|--6----6----6----6----|
G||--6----6----6----6----|--6----6----6----6----|
D||--8----8----8----8----|--8----8----8----8----|
A||--8----8----8----8----|--8----8----8----8----|
E||--6----6----6----6----|--6----6----6----6----|


    Fm   Fm   G#m  A#m     Fm   Fm Fm G#m  A#m            
              
E||--4----4----7----6----|--x----4--4--7----6----||
B||--6----6----9----6----|--x----6--6--9----6----||
G||--5----5----8----3----|--x----5--5--8----3----|| x 3
D||--3----3----6----3----|--x----3--3--6----3----||
A||--0----0----0----4----|--x----0--0--0----4----||
E||--0----0----0----6----|--x----0--0--0----6----||

Verse is next, only bass plays.

   PM ...............................................|           
G||--------------------------------------------------|
D||--------------------------------------------------|
A||--4--4--4--4--4--4--4--4--8--8--8--8--11-11-11-11-|
E||--------------------------------------------------|


Please! post c&c so i can finish the tab.





Comments


Popular Birds Of Tokyo tabs & chords
The Dark Side Of Love Bass Tabs
Wild Eyed Boy 2 Bass Tabs
In The Veins Of Death Valley Chords
Wayside Chords
White Witch Chords
Wild At Heart Chords
Silhouettic 1 Tabs
Violet Tabs
Armour For Liars Ukulele
Eduardo Ukulele


Song lyrics



↑ Back to top | Tablatures and chords are parodies/interpretations of the original songs. You may use it for private study, scholarship, research or language learning purposes only
© 2014 AZChords.com Contact us | Privacy policy | DMCA | Add/correct tabs | Request tabs | Top 50 tabs