>
 >
Broken Bones

Broken Bones Guitar Tabs

Birds Of Tokyo - Broken Bones chords, tabs, tablatures, lyrics

Guitar lessons | Add/correct | Request | Top 50 tabs Artists:  A B C D E F G H I J K L M N O P Q R S T U V W X Y Z 0-9

Broken Bones Guitar Tabs – Birds Of Tokyo

CD, Sheet music, Poster

Do you like Broken Bones? Share with your friends now
Bass TabsChordsChords v2TabsUkulele

up until verse 2 theres only tablature for 1 guitar as they are playing the exact 
same things until then



Tuning: Standard (EADGBe)

Intro Riff 1: Clean
e|-101010101010101010-|-8-8-8-8-8-8-8-8-|-1111111111111111-|-8-8-8-8-8-8-8-8-|
B|-9-9-9-9-9-9-9-9-9--|-8-8-8-8-8-8-8-8-|-8-8-8-8-8-8-8-8--|-6-6-6-6-6-6-6-6-|
G|-8-8-8-8-8-8-8-8-8--|-8-8-8-8-8-8-8-8-|-8-8-8-8-8-8-8-8--|-5-5-5-5-5-5-5-5-|
D|--------------------|-----------------|-8-8-8-8-8-8-8-8--|-----------------|
A|--------------------|-----------------|------------------|-----------------|
E|--------------------|-----------------|------------------|-----------------|

Repeat intro but last bar instead is: w/ light distortion

e|-------------|-------------|
B|-------------|-------------|
G|-6--6--6--6--|-6--6--6--6--|
D|-8--8--8--8--|-8--8--8--8--|
A|-8--8--8--8--|-8--8--8--8--|
E|-6--6--6--6--|-6--6--6--6--|


Intro Riff 2: Light distortion, Play twice

e|-----------------|-----------------|-----------------|-----------------|
B|-----------------|-----------------|-----------------|-----------------|
G|-1-1-1-1-1-1-1-1-|-5-5-5-5-6-6-6-6-|---1-1-1-1-1-1-1-|-5-5-5-5-8-8-8-8-|
D|-3-3-3-3-3-3-3-3-|-6-6-6-6-8-8-8-8-|---3-3-3-3-3-3-3-|-6-6-6-6-8-8-8-8-|
A|-3-3-3-3-3-3-3-3-|-6-6-6-6-8-8-8-8-|---3-3-3-3-3-3-3-|-6-6-6-6-8-8-8-8-|
E|-1-1-1-1-1-1-1-1-|-4-4-4-4-6-6-6-6-|---1-1-1-1-1-1-1-|-4-4-4-4-6-6-6-6-|


Verse 1: light distortion and played 4 times

e|-----------------|-----------------|-----------------|-----------------|
B|-----------------|-----------------|-----------------|-----------------|
G|-----------------|-----------------|-----------------|-----------------|
D|-----------------|-----------------|-----------------|-----------------|
A|-3-3-3-3-3-3-3-3-|-6-6-6-6-8-8-8-8-|---3-3-3-3-3-3-3-|-6-6-6-6-8-8-8-8-|
E|-1-1-1-1-1-1-1-1-|-4-4-4-4-6-6-6-6-|---1-1-1-1-1-1-1-|-4-4-4-4-6-6-6-6-|
   . . . . . . . .   . . . . . . . .     . . . . . . .   . . . . . . . .

Chorus: light distortion (what a surprise)

e|-----------------|-----------------|-----------------|-----------------|
B|-----------------|-----------------|-----------------|-----------------|
G|-----------------|-----------------|-----------------|-----------------|
D|-6-6-6-6-6-6-6-6-|-6-6-6-6-6-6-6-6-|-1010101010101010|-1010101010101010|
A|-6-6-6-6-6-6-6-6-|-6-6-6-6-6-6-6-6-|-1010101010101010|-1010101010101010|
E|-4-4-4-4-4-4-4-4-|-4-4-4-4-4-4-4-4-|-8-8-8-8-8-8-8-8-|-8-8-8-8-8-8-8-8-|

e|-----------------|-----------------|-----------------|-----------------|
B|-----------------|-----------------|-----------------|-----------------|
G|-----------------|-----------------|-----------------|-----------------|
D|-1313131313131313|-1313131313131313|-3-3-3-3-3-3-3-3-|-3-3-3-3-x-x-x-x-|
A|-1313131313131313|-1313131313131313|-3-3-3-3-3-3-3-3-|-3-3-3-3-x-x-x-x-|
E|-1111111111111111|-1111111111111111|-1-1-1-1-1-1-1-1-|-1-1-1-1-x-x-x-x-|

e|-----------------|-----------------|-----------------|-----------------|
B|-----------------|-----------------|-----------------|-----------------|
G|-----------------|-----------------|-----------------|-----------------|
D|-6-6-6-6-6-6-6-6-|-6-6-6-6-6-6-6-6-|-1010101010101010|-1010101010101010|
A|-6-6-6-6-6-6-6-6-|-6-6-6-6-6-6-6-6-|-1010101010101010|-1010101010101010|
E|-4-4-4-4-4-4-4-4-|-4-4-4-4-4-4-4-4-|-8-8-8-8-8-8-8-8-|-8-8-8-8-8-8-8-8-|

e|-----------------|-----------------|-----------------|-----------------|
B|-----------------|-----------------|-----------------|-----------------|
G|-----------------|-----------------|-6-------6-------|-6-------6-------|
D|-1313131313131313|-1313131313131313|-8-------8-------|-8-------8-------|
A|-1313131313131313|-1313131313131313|-8-------8-------|-8-------8-------|
E|-1111111111111111|-1111111111111111|-6-------6-------|-6-------6-------|


Pre-verse:

e|-----------------|-----------------|
B|-----------------|-----------------|
G|-1-1-1-1-1-1-1-1-|-5-5-5-5-6-6-6-6-|
D|-3-3-3-3-3-3-3-3-|-6-6-6-6-8-8-8-8-|
A|-3-3-3-3-3-3-3-3-|-6-6-6-6-8-8-8-8-|
E|-1-1-1-1-1-1-1-1-|-4-4-4-4-6-6-6-6-|


Verse 2: light distort

both guitars
e|-----------------|-----------------|-----------------|-----------------|
B|-----------------|-----------------|-----------------|-----------------|
G|-----------------|-----------------|-----------------|-----------------|x4
D|-----------------|-----------------|-----------------|-----------------|
A|-3-3-3-3-3-3-3-3-|-6-6-6-6-8-8-8-8-|---3-3-3-3-3-3-3-|-6-6-6-6-8-8-8-8-|
E|-1-1-1-1-1-1-1-1-|-4-4-4-4-6-6-6-6-|---1-1-1-1-1-1-1-|-4-4-4-4-6-6-6-6-|
   . . . . . . . .   . . . . . . . .     . . . . . . .   . . . . . . . . 

Guitar 1
e|-----------------|-----------------|-----------------|-----------------|
B|-----------------|-----------------|-----------------|-----------------|
G|-6-------6---x-x-|-6-------6---x-x-|-6-----6-6---x-x-|-6---6-6-6-6-6-6-|
D|-8-------8---x-x-|-8-------8---x-x-|-8-----8-8---x-x-|-8---8-8-8-8-8-8-|
A|-8-------8---x-x-|-8-------8---x-x-|-8-----8-8---x-x-|-8---8-8-8-8-8-8-|
E|-6-------6---x-x-|-6-------6---x-x-|-6-----6-6---x-x-|-6---6-6-6-6-6-6-|

Guitar 2
e|-----------------|-----------------|-----------------|-----------------|
B|-----------------|-----------------|-----------------|-----------------|
G|-6-------6---x-x-|-6-------6---x-x-|-6-----6-6---x-x-|-131311118-8-1010|
D|-8-------8---x-x-|-8-------8---x-x-|-8-----8-8---x-x-|-x-x-x-x-x-x-x-x-|
A|-8-------8---x-x-|-8-------8---x-x-|-8-----8-8---x-x-|-11119-9-6-6-8-8-|
E|-6-------6---x-x-|-6-------6---x-x-|-6-----6-6---x-x-|-----------------|

both guitars
e|-----------------|-----------------|-----------------|-----------------|
B|-----------------|-----------------|-----------------|-----------------|
G|-----------------|-----------------|-----------------|-----------------|x1
D|-----------------|-----------------|-----------------|-----------------|
A|-3-3-3-3-3-3-3-3-|-6-6-6-6-8-8-8-8-|---3-3-3-3-3-3-3-|-6-6-6-6-8-8-8-8-|
E|-1-1-1-1-1-1-1-1-|-4-4-4-4-6-6-6-6-|---1-1-1-1-1-1-1-|-4-4-4-4-6-6-6-6-|
   . . . . . . . .   . . . . . . . .     . . . . . . .   . . . . . . . . 


Chorus:
e|-----------------|-----------------|-----------------|-----------------|
B|-----------------|-----------------|-----------------|-----------------|
G|-----------------|-----------------|-----------------|-----------------|
D|-6-6-6-6-6-6-6-6-|-6-6-6-6-6-6-6-6-|-1010101010101010|-1010101010101010|
A|-6-6-6-6-6-6-6-6-|-6-6-6-6-6-6-6-6-|-1010101010101010|-1010101010101010|
E|-4-4-4-4-4-4-4-4-|-4-4-4-4-4-4-4-4-|-8-8-8-8-8-8-8-8-|-8-8-8-8-8-8-8-8-|

e|-----------------|-----------------|-----------------|-----------------|
B|-----------------|-----------------|-----------------|-----------------|
G|-----------------|-----------------|-----------------|-----------------|
D|-1313131313131313|-1313131313131313|-3-3-3-3-3-3-3-3-|-3-3-3-3-x-x-x-x-|
A|-1313131313131313|-1313131313131313|-3-3-3-3-3-3-3-3-|-3-3-3-3-x-x-x-x-|
E|-1111111111111111|-1111111111111111|-1-1-1-1-1-1-1-1-|-1-1-1-1-x-x-x-x-|

e|-----------------|-----------------|-----------------|-----------------|
B|-----------------|-----------------|-----------------|-----------------|
G|-----------------|-----------------|-----------------|-----------------|
D|-6-6-6-6-6-6-6-6-|-6-6-6-6-6-6-6-6-|-1010101010101010|-1010101010101010|
A|-6-6-6-6-6-6-6-6-|-6-6-6-6-6-6-6-6-|-1010101010101010|-1010101010101010|
E|-4-4-4-4-4-4-4-4-|-4-4-4-4-4-4-4-4-|-8-8-8-8-8-8-8-8-|-8-8-8-8-8-8-8-8-|

e|-----------------|-----------------|--------|--------|--------|--------|
B|-----------------|-----------------|--------|--------|--------|--------|
G|-----------------|-----------------|-6---6--|-6---6--|-6---6--|-6---6--|
D|-1313131313131313|-1313131313131313|-8---8--|-8---8--|-8---8--|-8---8--|
A|-1313131313131313|-1313131313131313|-8---8--|-8---8--|-8---8--|-8---8--|
E|-1111111111111111|-1111111111111111|-6---6--|-6---6--|-6---6--|-6---6--|



Bridge:
 Guitar 1
e|-----------------|-----------------|-----------------|-----------------|
B|-----------------|-----------------|-----------------|-----------------|
G|-6---------------|-----------------|-----------------|-----------------|
D|-8---------------|-----------------|-----------------|-----------------|
A|-8---------------|-----------------|-8---------------|-----------------|
E|-6---------------|-----------------|-6---------------|-----------------|

  synth in background
e|-----------------|-----------------|-----------------|-----------------|
B|-5---------------|-6---------------|-5---------------|-6---------------|
G|-----------------|-----------------|-----------------|-----------------|
D|-----------------|-----------------|-----------------|-----------------|
A|-----------------|-----------------|-----------------|-----------------|
E|-----------------|-----------------|-----------------|-----------------|

Guitar 1
e|-----------------|-----------------|-----------------|-----------------|
B|-----------------|-----------------|-----------------|-----------------|
G|-----------------|-----------------|-----------------|-----------------|
D|-----------------|-----------------|-----------------|-----------------|
A|-8---------------|-----------------|-8---------------|-----------------|
E|-6---------------|-----------------|-6---------------|-----------------|

e|-----------------|-----------------|-----------------|
B|-----------------|-----------------|-----------------|
G|-----------------|-----------------|-----------------|
D|-----------------|-----------------|-----------------|
A|-8---------------|-----------------|-8---------------|
E|-6---------------|-----------------|-6---------------|

e|-----------------|-----------------|-----------------|-----------------|
B|-----------------|-----------------|-----------------|-----------------|
G|-----------------|-----------------|-----------------|-1---------------|
D|-6---------------|-----------------|-----------------|-3---------------|
A|-6---------------|-----------------|-----------------|-3---------------|
E|-4---------------|-----------------|-----------------|-1---------------|


e|-----------------|-----------------|-----------------|-----------------|
B|-----------------|-----------------|-----------------|-----------------|
G|-----------------|-----------------|-----------------|-----------------|
D|-6-6-6-6-6-6-6-6-|-6-6-6-6-6-6-6-6-|-1010101010101010|-1010101010101010|
A|-6-6-6-6-6-6-6-6-|-6-6-6-6-6-6-6-6-|-1010101010101010|-1010101010101010|
E|-4-4-4-4-4-4-4-4-|-4-4-4-4-4-4-4-4-|-8-8-8-8-8-8-8-8-|-8-8-8-8-8-8-8-8-|

e|-----------------|-----------------|-----------------|-----------------|
B|-----------------|-----------------|-----------------|-----------------|
G|-----------------|-----------------|-----------------|-----------------|
D|-1313131313131313|-1313131313131313|-3-3-3-3-3-3-3-3-|-3-3-3-3-3-3-3-3-|
A|-1313131313131313|-1313131313131313|-3-3-3-3-3-3-3-3-|-3-3-3-3-3-3-3-3-|
E|-1111111111111111|-1111111111111111|-1-1-1-1-1-1-1-1-|-1-1-1-1-1-1-1-1-|


Solo:

Guitar 1:
e|-----------------|-----------------|-----------------|-----------------|
B|-----------------|-----------------|-----------------|-----------------|
G|-1010101010101212|-121212125-5-5-5-|-1010101010101212|-1212121215151212|
D|-----------------|-----------------|-----------------|-----------------|
A|-8-8-8-8-8-8-1010|-101010103-3-3-3-|-8-8-8-8-8-8-1010|-1010101013131010|
E|-----------------|-----------------|-----------------|-----------------|

Guitar 2:
e|-----------------|-----------------|-----------------|-----------------|
B|-----------------|-----------------|-----------------|-----------------|
G|-----------------|-----------------|-----------------|-----------------|
D|-6-6-6-6-6-6-6-6-|-6-6-6-6-6-6-6-6-|-1010101010101010|-1010101010101010|
A|-6-6-6-6-6-6-6-6-|-6-6-6-6-6-6-6-6-|-1010101010101010|-1010101010101010|
E|-4-4-4-4-4-4-4-4-|-4-4-4-4-4-4-4-4-|-8-8-8-8-8-8-8-8-|-8-8-8-8-8-8-8-8-|


Guitar 1:
e|-----------------|-----------------|-----------------|-----------------|
B|-----------------|-----------------|-----------------|-----------------|
G|-1010101010101212|-121212125-5-5-5-|-1313121210108-8-|-5-5-5-5-6-6-6-6-|
D|-----------------|-----------------|-----------------|-----------------|
A|-8-8-8-8-8-8-1010|-101010103-3-3-3-|-111110108-8-6-6-|-3-3-3-3-6-6-6-6-|
E|-----------------|-----------------|-----------------|-----------------|

Guitar 2:
e|-----------------|-----------------|-----------------|-----------------|
B|-----------------|-----------------|-----------------|-----------------|
G|-----------------|-----------------|-----------------|-----------------|
D|-1313131313131313|-1313131313131313|-3-3-3-3-3-3-3-3-|-3-3-3-3-3-3-3-3-|
A|-1313131313131313|-1313131313131313|-3-3-3-3-3-3-3-3-|-3-3-3-3-3-3-3-3-|
E|-1111111111111111|-1111111111111111|-1-1-1-1-1-1-1-1-|-1-1-1-1-1-1-1-1-|


Guitar 1:
e|-----------------|-----------------|-----------------|-----------------|
B|-----------------|-----------------|-----------------|-----------------|
G|-1010101010101212|-121212125-5-5-5-|-1010101010101212|-1212121215151212|
D|-----------------|-----------------|-----------------|-----------------|
A|-8-8-8-8-8-8-1010|-101010103-3-3-3-|-8-8-8-8-8-8-1010|-1010101013131010|
E|-----------------|-----------------|-----------------|-----------------|

Guitar 2:
e|-----------------|-----------------|-----------------|-----------------|
B|-----------------|-----------------|-----------------|-----------------|
G|-----------------|-----------------|-----------------|-----------------|
D|-6-6-6-6-6-6-6-6-|-6-6-6-6-6-6-6-6-|-1010101010101010|-1010101010101010|
A|-6-6-6-6-6-6-6-6-|-6-6-6-6-6-6-6-6-|-1010101010101010|-1010101010101010|
E|-4-4-4-4-4-4-4-4-|-4-4-4-4-4-4-4-4-|-8-8-8-8-8-8-8-8-|-8-8-8-8-8-8-8-8-|


Guitar 1:
e|-----------------|-----------------|-----------------|-----------------|
B|-----------------|-----------------|-----------------|---------16161616|
G|-1010101010101212|-121212125-5-5-5-|-1313131315151515|-17171717--------|
D|-----------------|-----------------|-----------------|---------13131313|
A|-8-8-8-8-8-8-1010|-101010103-3-3-3-|-1111111113131313|-15151515--------|
E|-----------------|-----------------|-----------------|-----------------|


Outro:

Both Guitars:
e|-----------------|-----------------|-----------------|-----------------|
B|-----------------|-----------------|-----------------|-----------------|
G|-----------------|-----------------|-----------------|-----------------|
D|-6-6-6-6-6-6-6-6-|-6-6-6-6-6-6-6-6-|-1010101010101010|-1010101010101010|
A|-6-6-6-6-6-6-6-6-|-6-6-6-6-6-6-6-6-|-1010101010101010|-1010101010101010|
E|-4-4-4-4-4-4-4-4-|-4-4-4-4-4-4-4-4-|-8-8-8-8-8-8-8-8-|-8-8-8-8-8-8-8-8-|

e|-----------------|-----------------|-----------------|-----------------|
B|-----------------|-----------------|-----------------|-----------------|
G|-----------------|-----------------|-----------------|-----------------|
D|-1313131313131313|-1313131313131313|-3-3-3-3-3-3-3-3-|-3-3-3-3-3-3-3-3-|
A|-1313131313131313|-1313131313131313|-3-3-3-3-3-3-3-3-|-3-3-3-3-3-3-3-3-|
E|-1111111111111111|-1111111111111111|-1-1-1-1-1-1-1-1-|-1-1-1-1-1-1-1-1-|

e|-----------------|-----------------|-----------------|-----------------|
B|-----------------|-----------------|-----------------|-----------------|
G|-----------------|-----------------|-----------------|-----------------|
D|-6-6-6-6-6-6-6-6-|-6-6-6-6-6-6-6-6-|-1010101010101010|-1010101010101010|
A|-6-6-6-6-6-6-6-6-|-6-6-6-6-6-6-6-6-|-1010101010101010|-1010101010101010|
E|-4-4-4-4-4-4-4-4-|-4-4-4-4-4-4-4-4-|-8-8-8-8-8-8-8-8-|-8-8-8-8-8-8-8-8-|

e|-----------------|-----------------|-----------------|-----------------|
B|-----------------|-----------------|-----------------|-----------------|
G|-----------------|-----------------|-----------------|-----------------|
D|-1313131313131313|-1313131313131313|-3-3-3-3-3-3-3-3-|-3-3-3-3-3-3-3-3-|
A|-1313131313131313|-1313131313131313|-3-3-3-3-3-3-3-3-|-3-3-3-3-3-3-3-3-|
E|-1111111111111111|-1111111111111111|-1-1-1-1-1-1-1-1-|-1-1-1-1-1-1-1-1-|


Guitar 1:
e|-----------------|-----------------|-----------------|-----------------|
B|-----------------|-----------------|-----------------|-----------------|
G|-1010101010101212|-121212125-5-5-5-|-1010101010101212|-121212128-8-8-8-|
D|-----------------|-----------------|-----------------|-----------------|
A|-8-8-8-8-8-8-1010|-101010103-3-3-3-|-8-8-8-8-8-8-1010|-101010106-6-6-6-|
E|-----------------|-----------------|-----------------|-----------------|

Guitar 2:
e|-----------------|-----------------|-----------------|-----------------|
B|-----------------|-----------------|-----------------|-----------------|
G|-----------------|-----------------|-----------------|-----------------|
D|-6-6-6-6-6-6-6-6-|-6-6-6-6-6-6-6-6-|-1010101010101010|-1010101010101010|
A|-6-6-6-6-6-6-6-6-|-6-6-6-6-6-6-6-6-|-1010101010101010|-1010101010101010|
E|-4-4-4-4-4-4-4-4-|-4-4-4-4-4-4-4-4-|-8-8-8-8-8-8-8-8-|-8-8-8-8-8-8-8-8-|


Guitar 1:
e|-----------------|-----------------|-----------------|-----------------|
B|-----------------|-----------------|-----------------|-----------------|
G|-1010101010101212|-121212125-5-5-5-|-1010101010108-8-|-8-8-8-8-8-8-8-8-|
D|-----------------|-----------------|-----------------|-----------------|
A|-8-8-8-8-8-8-1010|-101010103-3-3-3-|-8-8-8-8-8-8-6-6-|-6-6-6-6-6-6-6-6-|
E|-----------------|-----------------|-----------------|-----------------|

Guitar 2:
e|-----------------|-----------------|-----------------|-----------------|
B|-----------------|-----------------|-----------------|-----------------|
G|-----------------|-----------------|-----------------|-----------------|
D|-1313131313131313|-1313131313131313|-3-3-3-3-3-3-3-3-|-3-3-3-3-3-3-3-3-|
A|-1313131313131313|-1313131313131313|-3-3-3-3-3-3-3-3-|-3-3-3-3-3-3-3-3-|
E|-1111111111111111|-1111111111111111|-1-1-1-1-1-1-1-1-|-1-1-1-1-1-1-1-1-|


Guitar 1:
e|-----------------|-----------------|-----------------|-----------------|
B|-----------------|-----------------|-----------------|-----------------|
G|-1010101010101212|-121212125-5-5-5-|-1010101010101212|-121212128-8-8-8-|
D|-----------------|-----------------|-----------------|-----------------|
A|-8-8-8-8-8-8-1010|-101010103-3-3-3-|-8-8-8-8-8-8-1010|-101010106-6-6-6-|
E|-----------------|-----------------|-----------------|-----------------|

Guitar 2:
e|-----------------|-----------------|-----------------|-----------------|
B|-----------------|-----------------|-----------------|-----------------|
G|-----------------|-----------------|-----------------|-----------------|
D|-6-6-6-6-6-6-6-6-|-6-6-6-6-6-6-6-6-|-1010101010101010|-1010101010101010|
A|-6-6-6-6-6-6-6-6-|-6-6-6-6-6-6-6-6-|-1010101010101010|-1010101010101010|
E|-4-4-4-4-4-4-4-4-|-4-4-4-4-4-4-4-4-|-8-8-8-8-8-8-8-8-|-8-8-8-8-8-8-8-8-|


Guitar 1:
e|-----------------|-----------------|-----------------|-----------------|
B|-----------------|-----------------|-----------------|-----------------|
G|-1010101010101212|-121212123-3-3-3-|-5---------------|-----------------|
D|-----------------|-----------------|-----------------|-----------------|
A|-8-8-8-8-8-8-1010|-101010101-1-1-1-|-3---------------|-----------------|
E|-----------------|-----------------|-----------------|-----------------|

Guitar 2:
e|-----------------|-----------------|-----------------|-----------------|
B|-----------------|-----------------|-----------------|-----------------|
G|-----------------|-----------------|-----------------|-----------------|
D|-1313131313131313|-1313131313131313|-3---------------|-----------------|
A|-1313131313131313|-1313131313131313|-3---------------|-----------------|
E|-1111111111111111|-1111111111111111|-1---------------|-----------------|





Comments


Popular Birds Of Tokyo tabs & chords
Silhouettic 2 Bass Tabs
Wild At Heart Bass Tabs
Wild Eyed Boy 2 Bass Tabs
Armour For Liars Chords
Black Sheets Chords
Eduardo Chords
Plans Chords
This Fire Chords
Lanterns Tabs
White Witch Ukulele


Song lyrics



↑ Back to top | Tablatures and chords are parodies/interpretations of the original songs. You may use it for private study, scholarship, research or language learning purposes only
© 2014 AZChords.com Contact us | Privacy policy | DMCA | Add/correct tabs | Request tabs | Top 50 tabs