>
 >
Broken Bones

Broken Bones Bass Tabs

Birds Of Tokyo - Broken Bones chords, tabs, tablatures, lyrics

Guitar lessons | Add/correct | Request | Top 50 tabs Artists:  A B C D E F G H I J K L M N O P Q R S T U V W X Y Z 0-9

Broken Bones Bass Tabs – Birds Of Tokyo

CD, Sheet music, Poster

Do you like Broken Bones? Share with your friends now
Bass TabsChordsChords v2TabsUkulele

Intro (Bass comes in at 0.09)
G||-----------------------------------------------------------------|----------------|
D||-----------------------------------------------------------------|----------------|
A||---------------------------------6-------------------------------|----------------|
E||-4---------------8-------------------------------6---6---6---6---|6---6---6---6---|



Riff 
G||-----------------------------------------------------------------|
D||-----------------------------------------------------------------|
A||-----------------------------------------------------------------|
E||-1-1-1-1-4-4-6-6---1-1-1-4-4-6-6-1-1-1-1-4-4-6-6---1-1-1-4-4-6-6-|



Verse
G||-----------------------------------------------------------------|
D||-----------------------------------------------------------------|   2x
A||-----------------------------------------------------------------|
E||-1-1-1-1-4-4-6-6---1-1-1-4-4-6-6-1-1-1-1-4-4-6-6---1-1-1-4-4-6-6-|



Chorus
G||-----------------------------------------------------------------|
D||-----------------------------------------------------------------|
A||---------------------------------6-6-6-6-6-6-6-6-----------------|
E||-4-4-4-4-4-4-4-4-8-8-8-8-8-8-8-8-----------------1-1-1-1-1-1-1-1-|

G||-----------------------------------------------------------------|
D||-----------------------------------------------------------------|
A||---------------------------------6-6-6-6-6-6-6-6-----------------|
E||-4-4-4-4-4-4-4-4-8-8-8-8-8-8-8-8-----------------6---6---6---6---|

(1 bar of guitar & drum fill)


Verse 2
G||-----------------------------------------------------------------|
D||-----------------------------------------------------------------|   2x
A||-----------------------------------------------------------------|
E||-1-1-1-1-4-4-6-6---1-1-1-4-4-6-6-1-1-1-1-4-4-6-6---1-1-1-4-4-6-6-|

G||----------------------------------------------------------------------|
D||----------------------------------------------------------------------|
A||----------------------------------------------------------------------|
E||-6ó--6\--------/13------6---6\--------1-1-1-1-4-4-6-6---1-1-1-4-4-6-6-|


Chorus 2
G||-----------------------------------------------------------------|
D||-----------------------------------------------------------------|
A||---------------------------------6-6-6-6-6-6-6-6-----------------|
E||-4-4-4-4-4-4-4-4-8-8-8-8-8-8-8-8-----------------1-1-1-1-1-1-1-1-|

G||---------------------------------------------------------------------------------|
D||---------------------------------------------------------------------------------|
A||---------------------------------6-6-6-6-6-6-6-6---------------------------------|
E||-4-4-4-4-4-4-4-4-8-8-8-8-8-8-8-8-----------------6---6---6---6---6---6---6---6---|


Bridge
G||------------------|
D||------------------|   5x
A||------------------|
E||-6ó-----/17-------|

G||----------------------------------------------------------------------------------|
D||----------------------------------------------------------------------------------|
A||-----------------------------6---------8---------------------------6--------------|
E||-6-------6---4--------8-------------------------4--------8-----------------1------|


Chorus 3 (Outro)
G||-----------------------------------------------------------------|
D||-----------------------------------------------------------------|   2x
A||---------------------------------6-6-6-6-6-6-6-6-8-8-8-8-8-8-8-8-|
E||-4-4-4-4-4-4-4-4-8-8-8-8-8-8-8-8---------------------------------|

G||-----------------------------------------------------------------|
D||-----------------------------------------------------------------|
A||---------------------------------6-6-6-6-6-6-6-6-----------------|
E||-4-4-4-4-4-4-4-4-8-8-8-8-8-8-8-8-----------------1-1-1-1-1-1-1-1-|

G||-----------------------------------------------------------------|
D||-----------------------------------------------------------------|   3x
A||---------------------------------6-6-6-6-6-6-6-6-8-8-8-8-8-8-8-8-|
E||-4-4-4-4-4-4-4-4-8-8-8-8-8-8-8-8---------------------------------|

G||---------|
D||---------|
A||---------|
E||-6-------| (Let Ring)

This is pretty basic, mainly just the root notes of the chords played by the
 guitars. During chorus 3 you can hear him do some fills leading into the 
cadences, but I canít pick up the exact phrases, so I just improvise as I go
 along, which sounds just as good when you learn a few good fills and put 
them in randomly.





Comments


Popular Birds Of Tokyo tabs & chords
Wild At Heart Bass Tabs
Black Sheets Chords
Plans 2 Chords
White Witch Chords
Broken Bones Tabs
Circles Tabs
Lanterns Tabs
Silhouettic 1 Tabs
Armour For Liars Ukulele
Broken Bones Ukulele


Song lyrics



↑ Back to top | Tablatures and chords are parodies/interpretations of the original songs. You may use it for private study, scholarship, research or language learning purposes only
© 2014 AZChords.com Contact us | Privacy policy | DMCA | Add/correct tabs | Request tabs | Top 50 tabs