» » »

Just The Way You Are Tabs (ver.2)

Artists:  A B C D E F G H I J K L M N O P Q R S T U V W X Y Z # 

Just The Way You Are Tabs (ver.2)

Billy Joel
Rating:
5/5 (1 vote)

Hard to play? Try these video lessons and learn fast.
                #------------------------------------------------------------------------------##
This my first submition. Hope you like. It's my finger style accompaniment to tune. 
if first section wraps.

 4/4
  Gtr I
|-------0--2-----0-------------------------------------2-------0----------------|
|-----3------3-0---0---------3-----------3---------------2-----1-3--------------|
|---2--------1-1-----1---4-4---4-----4-4---3-------3-2-----2---0-2---4-----4----|
|-0----------0-0-------0-4-4---4-4---4-4---3-----3---2-------2-2-0---4-----4----|
|------------2-2---------5-5---2---0-5-5---5---5-----4---------0-0---5---5------|
|------------0-0---------3-3---------3-3---3-3-------2---------------3-3--------|


|------------------------------------0----------------|
|------------------------2-3-0-0-2-3---2-0-0---0-2----|
|-3-3------2---2-------2-2-2-1-1---1---1---0-2-0-0----|
|-3---3----2---2-----2---2-4-0-0---0---0---2-2-2-2----|
|-5-----5--5-------5-----2-2-2-2---2---2---0-0-0-0----|
|-3--------2-2---2-------2-2-0-0---0---0--------------|


|-------------0-------------3-------7-5----|
|-2-3-0-0-2-3-----0-2-----3-------3-8-7----|
|-2-2-0-0---0-----0-0---2-------2---7-7----|
|-2-4-0-0---2-----2-2-0-------0------------|
|-2-2-2-2---0-----0-0----------------------|
|-2-2-0-0----------------------------------|


|---------------------------------------------------2-------0----|
|-----3---------2-2-------3-2-0---0-0-2---2-2-----3-------1------|
|-4-4---------2---2-----2-2-----2-0-0-0---0-0---2-------2--------|
|-4-4-------2-----2---2---4-------0-0-2---2-2-0-------0----------|
|-5-5-----0-------4-4-----2-------2-2-0-0-0-0--------------------|
|-3-3---0---------2---------------0-0----------------------------|


|-----1-0-----------0----------------------------------------|
|-3-3---1-3-1---1-1---3-1---------3-1---------------3---2----|
|-3-3---0-----3-0-0---2---3-2-3-3---0-3-2-0-2-----2-0---0----|
|-3-3---2-------2-2---0-------3-3---2-------0---0---2---2----|
|-1-1---3-------0-0---0-------5-5---3-------2-2-----0-0-0----|
|-----------------------------3-3-----------0----------------|
            
Hard to play? Try these video lessons and learn fast. | Correct




comments powered by Disqus
↑ Back to top | Tablatures and chords are parodies/interpretations of the original songs. You may use it for private study, scholarship, research or language learning purposes only