» » »

Summercat Bass tabs (ver.1)

Artists:  A B C D E F G H I J K L M N O P Q R S T U V W X Y Z # 

Summercat Bass tabs (ver.1)

Billie The Vision And The Dancers
Rating:
0/5 (0 votes)

Hard to play? Try these video lessons and learn fast.
                

Tuning: Standard

Intro (Only once)
G|---------------------------------------------------------------------------|
D|---------------------------------------------------------------------------|
A|-7----------2-----------4-----------------------7--------------------------|
E|----------------------------------5------7---------------------------------|

G|---------------------------------------------------------------------------|
D|-----1----4----1---4----2----4---2----4------------------------------------|
A|--2---------2--------4---------4-----------4----7----6----9----------------|
E|----------------------------------------5---------7------------------------|

Rest of the song...(Play till the end of eternity)
G|--------------------------------------------------------------------------------|
D|----6----9----6----9------------------------------------------------------------|
A|-7---------7------------6----9----6----9----7----9----7----9---4----7----6----9-|
E|---------------------7---------7---------9---------9---------5---------7--------|
            
Hard to play? Try these video lessons and learn fast. | Correct




comments powered by Disqus
↑ Back to top | Tablatures and chords are parodies/interpretations of the original songs. You may use it for private study, scholarship, research or language learning purposes only