» » »

Overdosing With You Tabs (ver.1)

Artists:  A B C D E F G H I J K L M N O P Q R S T U V W X Y Z # 

Overdosing With You Tabs (ver.1)

Billie The Vision And The Dancers
Rating:
5/5 (1 vote)

Hard to play? Try these video lessons and learn fast.
                (Intro)
-------------------------------------------------------------------------------
            OVERDOSING WITH YOU - Billie The Vision And The Dancers     
-------------------------------------------------------------------------------

E|--------10--10--10---8---7--|------7---7s-8--7-----------|
B|----------------------------|--10-----------------10--8--|
G|----------------------------|----------------------------|
D|----------------------------|----------------------------|
A|----------------------------|----------------------------|
E|----------------------------|----------------------------|

E|------8---7--------7--------|----------------------------|
B|--------------10-------8----|--7---8---8s-10-8v----------|
G|--9-------------------------|----------------------------|
D|----------------------------|----------------------------|
A|----------------------------|----------------------------|
E|----------------------------|----------------------------|
            
Hard to play? Try these video lessons and learn fast. | Correct




comments powered by Disqus
↑ Back to top | Tablatures and chords are parodies/interpretations of the original songs. You may use it for private study, scholarship, research or language learning purposes only