>
 >
A Man From Argentina

A Man From Argentina Guitar Tabs

Billie The Vision And The Dancers - A Man From Argentina chords, tabs, tablatures, lyrics

Guitar lessons | Add/correct | Request | Top 50 tabs Artists:  A B C D E F G H I J K L M N O P Q R S T U V W X Y Z 0-9

A Man From Argentina Guitar Tabs – Billie The Vision And The Dancers

CD, Sheet music, Poster

Do you like A Man From Argentina? Share with your friends now
ChordsChords v2TabsTabs v2Ukulele
Chords used:
Am    Am7   Em     G     Am #2 Am7 #2 Gadd9  Fadd9  Asus4  F #2 F
e-8   e-5   e-7    e-3   e-0   e-3    e-5    e-3    e-0    e-1  e-0-|
b-5   b-8   b-8    b-3   b-1   b-1    b-0    b-1    b-3    b-1  b-1-|
g-5   g-5   g-9    g-4   g-2   g-2    g-0    g-2    g-2    g-2  g-2-|
d-7   d-7   d-9    d-5   d-2   d-2    d-0    d-3    d-2    d-3  d-3-|
a-7   a-7   a-7    a-5   a-0   a-0    a--    a-0    a-0    a-3  a-0-|
e-5   e-5   e--    e-3   e--   e--    e--    e--    e--    e-1  e---|

Beat: 3/4 (around 120 bpm)

Key: A Minor


 Am       Em        G       Am7     G      Am #2  Am7 #2 Gadd9 Fadd9  F
e-8--------7--------3------5--------3-------0-----0---3----5--3---0---0-----|
b---5--------8--------3-------8-----3-------1-----1--------0-------------1--|
g----------9----9------4--------5---4--4----2-----2--------0--2-----2---2-2-|
d----------9---9-9--5-------7-----7------5--2-2---2--------0--------------2-|
a-7----7---7--------5-------7-------------------0---0---0-------------------|
e-5---5-5-------------------5-----------------------------------------------|

 Am         Em      G       Am7    G      Am #2 Am7 #2 F #2
e---8-------7-------3------5--------3-------0---0----------------------|
b-----5-------8-------3-------8-----3-------1---3---3-----------1------|
g---------------9------4--------5---4--4----2---2---------------2----2-|
d-7---------9---9---5-------7----7-------5----2-2----------3---------3-|
a-7------0--7---7---5-------7-----------------0--------3-3---3----3----|
e-5-----------------3-------5--------------------------1----------1----|


Play that over and over again and there's the whole song! //JakieLarsson





Comments


Popular Billie The Vision And The Dancers tabs & chords
Summercat Bass Tabs
Summercat 2 Bass Tabs
A Man From Argentina 1 Chords
Nightmares Chords
Summercat Chords
Summercat 1 Chords
Would It Be Alright Chords
A Man From Argentina 1 Tabs
Ghost Tabs
A Man From Argentina Ukulele


Song lyrics



↑ Back to top | Tablatures and chords are parodies/interpretations of the original songs. You may use it for private study, scholarship, research or language learning purposes only
© 2014 AZChords.com Contact us | Privacy policy | DMCA | Add/correct tabs | Request tabs | Top 50 tabs