» » »

Big Wreck, West Virginia Tabs (ver.1)

Artists:  A B C D E F G H I J K L M N O P Q R S T U V W X Y Z # 

West Virginia Tabs (ver.1)

Big Wreck Tabs
Rating:
0/5 (0 votes)
West Virginia lessons Tabs too difficult? Try these video lessons and learn fast
                #----------------------------------PLEASENOTE---------------------------------#




Tuned low to high:C,G,C,G,C,C


PLAY IT LIKE U MEAN IT!!! have fun with it

---------------------|---------------------------------------------------|----|
-2--5--2--5/7v\------|---------------------------------------------------|----|
-2--5--2--5/7v\------|---------------------------------------------------|----|
-2--5--2--5/7v\------|----------------------2/3\2/3-----------------2/3--|----|
-2--5--2--5/7v\------|-0-0--0--0--0-0--0--0-2/3\2/3--0-0--0--0--0-0-2/3--|----|
-2--5--2--5/7v\------|-0-0--0--0--0-0--0--0-2/3\2/3--0-0--0--0--0-0-2/3--|----|
with slide main riff

------------------------------------------------------------------------------|
-------------------------------------------0-7p0-6p0-5\-----------------------|
-0h3h5-5v--0h3h5-5-5-7b8r7v--0h3h5v--0h3h5----------------0h3h5-5v--0h3h5-5v--|
------------------------------------------------------------------------------|
------------------------------------------------------------------------------|
------------------------------------------------------------------------------|
first break riff

------------------------------------------------------------------------------|
---------------0--------------------------------------------------------------|
-7b8r7v--0h2h3---3p2p0-----0--------------------------------------------------|
-----------------------0h3---3p2p0--------------------------------------------|
------------------------------------------------------------------------------|
------------------------------------------------------------------------------|

-----------------0-----0-----0-----------------0-----0------------------------|
-----------------0-----0-----0-----------------0-----0------------------------|
-----------------2-----1-----0-----------------2-----1------------------------|
--2--4--2--0--------------------2--4--2--0--------------0---------------------|
--------------2-----1-----0-----------------2-----1-----0---------------------|
--------------------------------------------------------0---------------------|
"I know what you're saying..."

------------------------------------------------------------------------------|
------------------------------------------------------------------------------|
------------------------------------------------------------------------------|
--0--3--0--3-/5\------0---------------0--3--0--3--/5\------0------------------|
--0--3--0--3-/5\------0---------------0--3--0--3--/5\------0------------------|
--0--3--0--3-/5\------0---------------0--3--0--3--/5\------0---2^-3^-4^-------|
"Now who......." 2nd with harmonics

--------------------------|---------------------------------------------------|
--/9--9-9\8/10\-----------|---------------------------------------------------|
--/9--9-9\8/10\-----------|----------------------------0-------0--------------|
--------------------------|---5--5-5---5---5/7-----4h5---0h4h5---0h4p0--------|
--------------------------|---5--5-5---5---5/7--------------------------------|
--------------------------|---5--5-5---5---5/7-------------------------3vp0---|
1st guitar w/sl. Chorus 2nd guitar

------------------------------------------------------------------------------|
------------------------------------------------10/15-0-0-0-0-0--10/15-0-0-0--|
------0-------0---------------------------------------------------------------|
--4h5---0h4h5---0h4p0--------5--5-5---5---5/7---------------------------------|
-----------------------------5--5-5---5---5/7---------------------------------|
---------------------3vp0----5--5-5---5---5/7---------------------------------|

------------------------------------------------------------------------------|
-0-0---10v--10/15-0-0-0-0-0--10/15-0-0-0-0-0--10v--10/15-0-0-0-0-0--10/15-0-0-|
------------------------------------------------------------------------------|
------------------------------------------------------------------------------|
------------------------------------------------------------------------------|
------------------------------------------------------------------------------|

------------------------------------------------------------------------------|
-0-0-0--10v--10/15-0-0-0-10/15-10/15--10/15-10/15--12\------------------------|
------------------------------------------------------------------------------|
------------------------------------------------------------------------------|
------------------------------------------------------------------------------|
------------------------------------------------------------------------------|
            

comments powered by Disqus
↑ Back to top | Big Wreck Tabs for West Virginia. Lyrics for acoustic guitar and electric guitar. Tablatures and chords are parodies/interpretations of the original songs. You may use it for private study, scholarship, research or language learning purposes only