» » »

Prayer Tabs (ver.1)

Artists:  A B C D E F G H I J K L M N O P Q R S T U V W X Y Z # 

Prayer Tabs (ver.1)

Big Wreck
Rating:
5/5 (1 vote)

Hard to play? Try these video lessons and learn fast.
                Big Wreck


Tuning is--B  F# C# F# B  D--low to high


    fairweather friend...
D |--------------------------------|
B |-----0-----0-----0-----0--------|
F#|----0-----0-----0-----0---------|
C#|--------------------------------| repeat 2x
F#|--8-----8-----8-----8-----------|
B |-8-----9----10-----7------------|

 all your lies...
-----------------------------------|
-----------------------------------|
-----------------------------------|
-----------------------------------|
-8-8---7--6--3-----0-3-0-3--3-3----|
-8-8---7--6--3-----0-3-0-3--3-3----|

    cause you're a star...
-----------------------------------|
-----0-----0------0-----0----------|
----0-----0------0-----0-----------|
-----------------------------------| repeat 2x
--8-----8------8-----8-------------|
-8-----9-----10-----7--------------|


 just to make a name...            you glance at the ceiling...
------------------------------------0-----0-----0-----0-----0-----0--|
-------------------------------------0-----0-----0-----0-----0-----0-|
-----------------------------------0-----0-----0-----0-----0-----0---|
---------------------------------------------------------------------|
-8-8---7--6--3-----0-3-0-4--4-4--5-----------------------------------|
-8-8---7--6--3-----0-3-0-4--4-4--5-----5-----0-----0-----9-----9-----|


                                     I can hang around...
----0-----0-----0-----0-----0-----0-----0-----0--------------|
-----0-----0-----0-----0-----0-----0-----0-------------------|
---0-----0-----0-----0-----0-----0-----0-----0---------------|
-------------------------------------------------------------|
-------------------------------------------------0--1--2--3--|
-3-----3-----5-----5-----0-----0-----9-----9-----0--1--2--3--|


----0-----0--------------|
-----0-------------------|
---0-----0---------------|
-------------------------|
-------------0--1--2--3--|
-9-----9-----0--1--2--3--|

 *distortion guitar*
------------------------------------------------|
------------------------------------------------|
----0-----0------0----0-----0----0-----0----0---|
------------------------------------------------|
--8-----8------8----8-----8----8-----8----8-----|
-8-----9-----10----7-----8----9----10----7------|

 the clock on the wall...
-----------------------------------|
-----------------------------------|
-----------------------------------|
-----------------------------------| repeat 2x
-8-8-8---8-8-8----8--8--8---8-8-8--|
-8-8-8---9-9-9---10-10-10---7-7-7--|


 if only for you...
----------------------------|
----------------------------|
----------------------------|
----------8--5--------------|
-8-8---7--6--3-----0-3-0-3--|
-8-8---7--6--3-----0-3-0-3--|


 the chance to run...
-------------------------------------|
-------------------------------------|
------(0)-----(0)--------(0)-----(0)-|
-------------------------------------| repeat 2x
-8-8-8---8-8-8----8--8--8---8-8-8----|
-8-8-8---9-9-9---10-10-10---7-7-7----|


 of what I need you for
----------------------------|
----------------------------|
----------------------------|
----------8--5--------------|
-8-8---7--6--3-----0-3-0-3--|
-8-8---7--6--3-----0-3-0-3--|

 its a disaster...
 that its my fault..
--------------------------------------------------------|
--------------------------------------------------------|
---constant----strum----on---this------part-------------|
--------------------------------------------------------| repeat
-8--------10--------12--------12----10----8----0--7-----|
-8--------10--------11--------12----10----8----0--7-----|

 I never prayed before
----------------------------------------|
----------------------------------------|
----------------------------------------|
----------------------------------------|
-8-----7--6--3----------8------7--6--3--|
-8-----7--6--3----------8------7--6--3--|


------------------------------------------------|
------------------------------------------------|
----0-----0------0----0-----0----0-----0----0---|
------------------------------------------------| repeat
--8-----8------8----8-----8----8-----8----8-----|
-8-----9-----10----7-----8----9----10----7------|


                                 you glance at the ceiling...
---------------------------------------------------------------------|
---------------------------------------------------------------------|
---------------------------------------------------------------------|
----------8--5-------------------------------------------------------|
-8-8---7--6--3-----0-3-0-4--4-4--5-------0-------9-------3-----------|
-8-8---7--6--3-----0-3-0-4--4-4--5-------0-------9-------3-----------|

                lonely but for...
--------------------------------------------------------|
--------------------------------------------------------|
--------------------------------------------------------|
--------------------------------------------------------|
-0--3--4--4-4---5-------0-------9-------0--1--2--3---9--|
-0--3--4--4-4---5-------0-------9-------0--1--2--3---9--|


-----------------------|
-----------------------|
-----------------------|
-----------------------|
-0--1--2--3----8----8--|
-0--1--2--3-sl-8-sl-9--|
            
Hard to play? Try these video lessons and learn fast. | Correct




comments powered by Disqus
↑ Back to top | Tablatures and chords are parodies/interpretations of the original songs. You may use it for private study, scholarship, research or language learning purposes only