» » »

Big Wreck, Mistake Tabs (ver.1)

Artists:  A B C D E F G H I J K L M N O P Q R S T U V W X Y Z # 

Mistake Tabs (ver.1)

Big Wreck Tabs
 Rating:
4.2/5 (5 votes)
Mistake lessons Tabs too difficult? Try these video lessons and learn fast
                
By Taylor Laughlin


TUNING - Cb Gb Db Gb Bb Db (open G down a semitone with a dropped 6th string)
FORM - you guys can figure it out... just a point that FIG. B and RIFF 3 are prerecorded
when they play live.
The 2x and 4x are just generalities (for phrasing) some are shorter/longer 2nd time (be
and use your ears!) lyrics are at bottom

-|-----------------------------------------------------|-----------------------------------------------------------|
-|-----------------------------------------------------|-----------------------------------------------------------|
-|-------------0-----0-----0-----0-------0-----0-----0-|-----------------------------------------------------------|
-|-----------5-----5-----5-----3---2---2-----2-----2---|-----------------------------------------------------------|
-|-----------------------------------------------------|-----------------------------------------------------------|
-|-0-2-2-3-3-----3-----3-----1-------0-----0-----0-----|-----------------------------------------------------------|
FIG. A (listen to CD for palm mutes etc... style is important) play twice, second time
comes in at 2-2-3-3--|

As I sift and drift through bullsh*t
That plagues from day to day
Would you ever really notice
that I've gone away...

then go into this for chorus


-|----------------|-------------------------------|----------------------|----|
-|----------------|-------------------------------|----------------------|----|
-|----------------|-------------------------------|----------------------|----|
-|-------------12-|-12-12-12b13r12-12-12-12b13r12-|-7-7-7b8r7-7-7-b8r7/5-|----|
-|-------------10-|-10-10----------10-10----------|-5-5-------5-5--------|----|
-|-14---12-12--10-|-10-10----------10-10----------|-5-5-------5-5--------|----|
FIG. B (guitar 1)

-|-------------------|--------------------------------------------------------|
-|-------------------|--------------------------------------------------------|
-|-----0-----0-----0-|--------------------------------------------------------|
-|---5-----5-----5---|--------------------------------------------------------|
-|-------------------|--------------------------------------------------------|
-|-3-----3-----3-----|--------------------------------------------------------|


-|-------12----13----12----|-------12----13----12---|-------12----13----12----|
-|----11----11----11----11-|----11----11----11----11|----11----11----11----11-|
-|-15----------------------|-14---------------------|-12----------------------|
-|-------------------------|------------------------|-------------------------|
-|-------------------------|------------------------|-------------------------|
-|-------------------------|------------------------|-------------------------|
FIG B.(guitar 2) (2x) (2x) (4x)

-|-----10---12---10---|-------------------------------------------------------|
-|---8----8----8----8-|-------------------------------------------------------|
-|-9------------------|-------------------------------------------------------|
-|--------------------|-------------------------------------------------------|
-|--------------------|-------------------------------------------------------|
-|--------------------|-------------------------------------------------------|
(4x)

-|-----0-----------|-0-0--0--0-|-------------------------------|--------------|
-|-0h1-----------1-|-4-4--3--1-|-13----------1-----------------|--------------|
-|-------3p0---0---|-0-0--0--0-|----15-12------3-0-------------|--------------|
-|-----------2-----|-5-5--3--2-|----------14-------2-----------|--------------|
-|-----------------|-----------|---------------------5-3-0-----|--------------|
-|-----------------|-----------|---------------------------4-0-|--------------|
RIFF 1 RIFF 2 (apregiatted) RIFF 3

-|-----------3-------|---------0-------|-----------0---------|----------------|
-|-----3---3---3---3-|-----1-----1---1-|------11-----11---11-|----------------|
-|---0---0-------0---|---0---0-----3---|----0----0------0----|----------------|
-|-3-----------------|-2---------------|-12------------------|----------------|
-|-------------------|-----------------|---------------------|----------------|
-|-------------------|-----------------|---------------------|----------------|
Ending (Acoustic 12string) (4x) (2x)

-|---------0-------|---------0-------|----------------------------------------|
-|-----6-----6---6-|-----4-----4---6-|----------------------------------------|
-|---0---0-----0---|---0---0-----0---|----------------------------------------|
-|-7---------------|-5---------------|----------------------------------------|
-|-----------------|-----------------|----------------------------------------|
-|-----------------|-----------------|----------------------------------------|
(2x) (4x)

As I sift and drift through bullsh*t
That plagues from day to day
Would you ever really notice
that I've gone away

I'm over the wall
Over the hill
Over at your place
I'm over the safety
Over the phone calls
Over the rage
What a mistake

When you've lost the stones to throw
They're the ones I found to make a fire
And all the lonely souls that say so, get fired

And I'm over the wall
Over the hill
Over at your place
(Just can't seem to get out of the way)
Over the safety
Over the phone calls
Over the rage
What a mistake

What a mistake
What a mistake
What a mistake
What a mistake

And I've never been lost
I've never been found
And it makes no difference
If I'm around
(Just can't seem to get out of the way)
There's never been words
There's never been actions
There's never been promises that I've never kept
(Just can't seem to get out of the way)

I'm over the wall
Over the hill
Over at your place
(Just can't seem to get out of this)

Pulling on the threads
I'm always pulling on the threads
I'm always pulling on the threads
I'm always pulling- Wow!
What a mistake


As I sift and drift through bullsh*t
That plagues from day to day
Would you ever really notice
Im gone away?
            
Submit corrections

comments powered by Disqus
↑ Back to top | Big Wreck Tabs for Mistake. Lyrics for acoustic guitar and electric guitar. Tablatures and chords are parodies/interpretations of the original songs. You may use it for private study, scholarship, research or language learning purposes only