» » »

Big Wreck, Look What I've Found Tabs (ver.1)

Artists:  A B C D E F G H I J K L M N O P Q R S T U V W X Y Z # 

Look What I've Found Tabs (ver.1)

Big Wreck Tabs
 Rating:
4/5 (4 votes)
Look What I've Found lessons Tabs too difficult? Try these video lessons and learn fast
                Look What I Found 
Big Wreck 



(SLIDE GUITAR SOLO) 

Guitar 1 + 2 
||-----------------------------|-----------------------------|| 
||-----------------------------|-----------------------------|| 
||-----------------------------|-----------------------------|| 
||-------0-----3p0---5p0-------|-------0-----3p0---5p0---3p0-|| 
||-3h5---0-0-0-----0-----0-3p0-|-3h5---0-0-0-----0-----0-----|| 
||-0---0-0-0-0-----0-----0-----|-0---0-0-0-0-----0-----0-----|| 


G ||-1-1-1-1-1-----1-3-3-3-3-3---3-3-|| 
U ||-3-3-3-3-3-----3-0-0-0-0-0---0-0-|| 
I ||-2-2-2-2-2-----2-0-0-0-0-0---0-0-|| 
T ||-0-0-0-0-0-----0-0-0-0-0-0---0-0-|| 
  ||---------------------------------|| 
1 ||---------------------------------|| 
  ||                                 || 
G ||-5-5-5-5-5---5-5-7-7-7-7-7---7-7-|| 
U ||-6-6-6-6-6---6-6-8-8-8-8-8---8-8-|| 
I ||-7-7-7-7-7---7-7-7-7-7-7-7---7-7-|| 
T ||---------------------------------|| 
  ||---------------------------------|| 
2 ||---------------------------------|| 


G ||-----------------------------|-----------------------------|| 
U ||-----------------------------|-----------------------------|| 
I ||-----------------------------|-----------------------------|| 
T ||-------0-----3p0---5p0-------|-------0-----3p0---5p0---3p0-|| 
  ||-3h5---0-0-0-----0-----0-3p0-|-3h5---0-0-0-----0-----0-----|| 
1 ||-0---0-0-0-0-----0-----0-----|-0---0-0-0-0-----0-----0-----|| 
  ||                             |                             || 
G ||-----------------------------|-----------------------------|| 
U ||-----------------------------|-----------------------------|| 
I ||-------------2p0---5---------|-------------2p0---5---------|| 
T ||-2h4-------------4-----------|-----------------4-----------|| 
  ||-0-----0---------------0h3p0-|-3h5---0---------------0h3p0-|| 
2 ||-0---0-0-0-0-----------0---0-|-0---0-0-0-0-----------0---0-|| 


"Well I suppose so . . . " (both guitars) 
||-----------------|-----------------|| 
||-----------------|-----------------|| 
||-0-0-0-0-0-0-0-0-|-0-0-0-0-0-0-0-0-|| 
||-5-5-5-5-5-5-5-3-|-5-5-5-3-3-2-2-2-|| 
||-5-5-5-5-5-5-5-3-|-5-5-5-3-3-2-2-2-|| 
||-5-5-5-5-5-5-5-3-|-5-5-5-3-3-2-2-2-|| 

Chorus (both guitars) 
||-----------------|------------------|-----------------|-----------------||
||-----------------|------------------|-----------------|-----------------|
||---------4br-----|----------4br-----|---------4br-----|---------4br-----||
||-7---3-0-----3-0-|-xxxx-3-0-----3-0-|-7---3-0-----3-0-|-5-5-3-0-----3-0-||
||-7---3-0-----3-0-|-xxxx-3-0-----3-0-|-7---3-0-----3-0-|-5-5-3-0-----3-0-||
||-7---3-0-----3-0-|-xxxx-3-0-----3-0-|-7---3-0-----3-0-|-5-5-3-0-----3-0-||
            
Submit corrections

comments powered by Disqus
↑ Back to top | Big Wreck Tabs for Look What I've Found. Lyrics for acoustic guitar and electric guitar. Tablatures and chords are parodies/interpretations of the original songs. You may use it for private study, scholarship, research or language learning purposes only