» » »

Breakthrough Tabs (ver.1)

Artists:  A B C D E F G H I J K L M N O P Q R S T U V W X Y Z # 

Breakthrough Tabs (ver.1)

Big Wreck
Rating:
0/5 (0 votes)

Tabs too difficult? Try these video lessons and learn fast.
                Big Wreck - Breakthrough
Tuning: Open Gb (Db,Gb,Db,Gb,Bb,Db)
No rhythms provided, however they are easy to figure out by listening to 
the album

Intro (0:00)
|-0-0-----0-0----|
|-1-3-----0-1----|
|-0-0-----0-0----|
|-2-3-----0-2----|
|-0-0-----0-0----|
|----------------|

(0:12) Verse                   
|-------------------|---0-0---|---0-0---|
|-------------------|---0-1---|---1-3---|
|-------------------|---0-0---|---0-0---|
|-0-5------10/12----|---0-2---|---2-3---|
|-0-5------10/12----|---0-0---|---0-0---|
|-------------------|---0-----|---------|

(1:00)
|---10--10---|---8--8----|---0--0---|
|---10--12---|---8--10---|---0--1---|
|---10--10---|---8--8----|---0--0---|
|---10--12---|---8--10---|---0--2---|
|---10--10---|---8--8----|---0--0---|
|------------|-----------|----------|

(2:02) Bridge, guitar 1
|---0---0---0---0---|--0---0-----------0--------|
|---12--12--12--10--|--0-0---0-----4-----4------|
|---12--10--9---8---|--0-------5-5---5-----5----|
|---12--12--10--10--|--0-------5-------------5--|
|---0---0---0---0---|--0-------5----------------|
|-------------------|---------------------------|

(2:02) Bridge, guitar 2
|--0-----0-----0-----0---|--0---0-----------0--------|
|--8--12\6--12\5--12\4---|--0-0---0-----4-----4------|
|--0--x--0--x--0--x--0---|--0-------5-5---5-----5----|
|--9--12\7--12\5--12\5---|--0-------5-------------5--|
|--0-----0-----0-----0---|--0-------5----------------|
|------------------------|---------------------------|

(3:54) Outro
|----------------------------------------------|
|----------0-----------------------------------|
|------2-------2-------0-------2b3r2~------0---|
|----3---3---3---3---1---1---3-------------0---|
|------------------------------------------0---|
|--3---------------1------/3-------------------|
            
Tabs too difficult? Try these video lessons and learn fast.


comments powered by Disqus
↑ Back to top | Tablatures and chords are parodies/interpretations of the original songs. You may use it for private study, scholarship, research or language learning purposes only