>
 >
Shining On

Shining On Bass Tabs

Big D And The Kids Table - Shining On chords, tabs, tablatures, lyrics

Guitar lessons | Add/correct | Request | Top 50 tabs Artists:  A B C D E F G H I J K L M N O P Q R S T U V W X Y Z 0-9

Shining On Bass Tabs – Big D And The Kids Table

CD, Sheet music, Poster

Do you like Shining On? Share with your friends now
Bass TabsBass Tabs v2ChordsTabsTabs v2Tabs v3Ukulele
Tuning: EADG normal

remember offbeat rests, listen to song

Intro, verse and outro.
G|--------------------------------------------------|
D|-------------------------------------------8------| X3
A|-6-6-5---------6-6-------6-6-5---------6-6--------|
E|-------8-6--6-----8-6--6-------8-6--6--------6--6-|

  then
G|------------------------------------------------|
D|------------------------------------------------|
A|-6----------------------------------------------|
E|------------------------------------------------|

G|--------------------------------------------------|
D|-------------------------------------------8------| X3
A|-6-6-5---------6-6-------6-6-5---------6-6--------|
E|-------8-6--6-----8-6--6-------8-6--6--------6--6-|

 chorus
G|----------------------------------------------------|
D|-------5---5--------------------------------------6-|
A|-6-6-6---6---6--------8----3-3-3-6-3-6-3--------6---|
E|---------------6-6-66---6----------------4-4-44-----|

G|-----------------------------------------------------|
D|-------5-----------------------------------------6---|
A|-6-6-6--6-6-8--------5----3-3-3-6-3-6-3--------6-----|
E|--------------3-3-33---3----------------4-4-44-------|

  Verse 2 (variation of other verses)
G|------------------------------------------------|
D|-----------------------------------------8------|
A|-6-6-5-3------6-6-3-----6-6-5-3------6-6--------| X2
E|---------6-6--------6-6---------6-6--------6-6--|

  chorus 2
G|----------------------------------------------------|
D|-------5-5----------------------------------------6-|
A|-6-6-6-----6-8--------8----3-3-3-6-6-3----------3---|
E|---------------6-6-66---6--------------6-4-4-44-----|

G|-----------------------------------------------------|
D|---------8-8-8---5-5-55------------5-5-------------6-|
A|---6-6-6-------8--------5----3-3-3----3-5--------3---|
E|--------------------------3---------------4-4-44-----|

  Bridge
G|---------------------------------------------------|
D|---------------------------------------------------|
A|---------7~---5~-----------------------------------|
E|-6~------------------------------------------------|


  Verse 3
G|------------------------------------------------------------------|
D|---------------------5-5-6-6-7-7-8-8-----8-5-85-------------------|
A|-----3-3-4-4-5-5-6-6-----------------8-8--------8-6-6-----6-------|
E|-4-4--------------------------------------------------3-3---3-6-4-|

G|------------------------------------------------------------------|
D|--------------------5---5-6-7-8-----8-8-8-------------------------|
A|-----3-3--3-4-5-6-6---6------------------10-8-10-8----------------|
E|-4-4----4-----------------------6-6----------------4--4-6-6--6----|

  Verse 1

G|--------------------------------------------------|
D|-------------------------------------------8------| X2
A|-6-6-5---------6-6-------6-6-5---------6-6--------|
E|-------8-6--6-----8-6--6-------8-6--6--------6--6-|

Chorus 2 played twice ... so X2
G|----------------------------------------------------|
D|-------5-5----------------------------------------6-|
A|-6-6-6-----6-8--------8----3-3-3-6-6-3----------3---|
E|---------------6-6-66---6--------------6-4-4-44-----|

G|-----------------------------------------------------|
D|---------8-8-8---5-5-55------------5-5-------------6-|
A|---6-6-6-------8--------5----3-3-3----3-5--------3---|
E|--------------------------3---------------4-4-44-----|

  Verse 1
G|--------------------------------------------------|
D|-------------------------------------------8------| X2
A|-6-6-5---------6-6-------6-6-5---------6-6--------|
E|-------8-6--6-----8-6--6-------8-6--6--------6--6-|

end on
G|--------------------------------------------------|
D|--------------------------------------------------|
A|-6~-----------------------------------------------|
E|--------------------------------------------------|





Comments


Popular Big D And The Kids Table tabs & chords
51 Gardner Bass Tabs
A Kiss A Week 2 Bass Tabs
Little Bitch Bass Tabs
Wailing Paddle Bass Tabs
175 Intro Tabs
Little Bitch Tabs
Shining On 1 Tabs
Wailing Paddle Tabs
What The Hell Are You Going To Do? Tabs
Shining On Ukulele


Song lyrics



↑ Back to top | Tablatures and chords are parodies/interpretations of the original songs. You may use it for private study, scholarship, research or language learning purposes only
© 2014 AZChords.com Contact us | Privacy policy | DMCA | Add/correct tabs | Request tabs | Top 50 tabs