» » »

Big D And The Kids Table, La X Bass tabs (ver.1)

Artists:  A B C D E F G H I J K L M N O P Q R S T U V W X Y Z # 

La X Bass tabs (ver.1)

Big D And The Kids Table Tabs
 Rating:
3.6/5 (5 votes)
La X lessons Tabs too difficult? Try these video lessons and learn fast
1
                Intro 0:00-0:09  - "Hey elitists from L.A..."
G ---------------------|
D ---------------------|
A 3--------------------|
E -------55--------11--|

Intro Part 2 0:09-0:26 - "You know who you are..."
G ------------------------------------------|
D ----------------------------------- Play--| x2
A 33333333----------------------------------|
E ---------33333333-55555555-11111111-------| Last note played only once second time 
hold the note.

Verse 0:30-0:40 - "f**k your f**king attitudes..."
G ------------------------------------|
D ------------------------------------|
A 33333333----------------------------|
E ---------33333333-55555555-11111111-|

0:40-0:49
G ------------------------------------|
D ------------------------------------|
A 33333333----------------------------|
E ---------33333333-55555555-77777777-|

Verse cont. 0:49-1:09 - "You get anything you want"
G ------------------------------------------|
D ----------------------------------- Play--| x2
A ---------------------------33333333-------|
E 33333333-11111111-55555555----------------|

Chorus 1 1:17-2:05 - Start on "...High Five"
G ------------------------------------------|
D ----------------------------------- Play--| x5
A 11111111-33333333-55555555-77777777-------|
E ------------------------------------------|

Verse 2 2:10-2:26 - Start on "...bleeding! And all the girls..."
G ------------------------------------------------------------------------|
D ----------------------------------- Play--------------------------------| x2
A 33333333----------------------------------------------------------------|
E ---------33333333-55555555-11111111 At 2:27 "...in Boston" Strike E 1-1-|

Verse 2 cont. 2:30-2:45 Start on "... best, Even though our lives..."
G ------------------------------------|
D ------------------------------------| Play x1, leads into Horn Interlude
A ---------------------------33333333-|
E 11111111-33333333-55555555----------|

Horn Interlude 2:45-3:04
G ----------------------------------------------------------|
D --------------------------------------------------- Play--| x2
A 333333--------------3--3-----------------------3--3-------|
E -----------333333-55-55--555555-------111111-11-11--------|

Pre-Chorus 2 3:04-3:14 "Even though my life is a mess..."
G ------------------------------------------|
D ----------------------------------- Play--| x1
A 33333333----------------------------------|
E ---------33333333-55555555-11111111-------|

Chorus 2 3:14-3:52 "And we go..."
G ------------------------------------------|
D ----------------------------------- Play--| x4
A 11111111-33333333-55555555-77777777-------|
E ------------------------------------------|

Quieter part of Chorus 2 3:52-4:10 "A Dinner Date sure..."
G -----------------------------------|
D -----------------------------------| Play x2
A -----------------------------------|
E 7>-------5>-------3>-------1>------|

Full Blown closing of song [Chorus 3] 4:10-4:52
G ------------------------------------------|
D ----------------------------------- Play--| x4
A 33333333----------------------------------|
E ---------33333333-55555555-11111111-------|

And then 3:52
G ------------|
D ------------|
A ------------|
E 3-3-3-3-----|
            
Submit corrections

comments powered by Disqus
↑ Back to top | Big D And The Kids Table Bass for La X. Lyrics for acoustic guitar and electric guitar. 1 Tablatures and chords are parodies/interpretations of the original songs. You may use it for private study, scholarship, research or language learning purposes only