» » »

Big D And The Kids Table, If We Want To Bass tabs (ver.1)

Artists:  A B C D E F G H I J K L M N O P Q R S T U V W X Y Z # 

If We Want To Bass tabs (ver.1)

Big D And The Kids Table Tabs
Rating:
0/5 (0 votes)
If We Want To lessons Tabs too difficult? Try these video lessons and learn fast
                

Tuning: Standard

Hey guys. This should be pretty simple. I gave time cues for when it first appears 
in the song. The
riffs are pretty recognizable so I'm sure you can piece together which ones you do when to make 
the whole song. There are a few variations that Steve does throughout the song, but they are too
minor to mention and make this tab longer. This is my 3rd Big D tab, and I'm sure there will be
more in the future. Enjoy!

INTRO:
(0:01)
G|---------------------------------------------------------------|
D|---------------------------------------------------------------|
A|-3-3-3--5-5-0-3-3-3--------0-3-0-0---3-3-3---------------------|
E|--------------------5/3--1---------3---------------------------|


VERSE:
(0:08)
G|---------------------------------------------------------------|
D|---------------------------------------------------------------|
A|-33333--5-5-0-3-3-3--------0-3-0-0---3-3-3---------------------|
E|--------------------5/3--1---------3---------------------------|


CHORUS:

PART 1
(0:53)
G|---------------------------------------------------------------|
D|---------------------------------------------------------------|
A|----------------------------55555555---------------------------|
E|-5-5-5555-3-3-3333-1-1-1111------------------------------------|

PART 2
(0:56)
G|---------------------------------------------------------------|
D|---------------------------------------------------------------|
A|-3-33-3--3345-55-5-5543-33-3-334-55332200----------------------|
E|-----3----------5---------3------------------------------------|


BRIDGE
(2:52-3:07)
G|---------------------------------------------------------------|
D|---------------------------------------------------------------|
A|--3-3(x14)-5-5(x14)-7(x16)-8(x16)------------------------------|
E|---------------------------------------------------------------|

G|---------------------------------------------------------------|
D|---------------------------------------------------------------|
A|-10(x16)-12(x16)-15(x16)-17(x8)-15/17(x5)\3-*------------------|
E|---------------------------------------------------------------|

*While you slide from 17 to 3 keep playing at the same speed!

I play this whole BRIDGE riff with one finger, just sliding on the string.



OUTRO (Do this a few times until the end)
(3:51) 
G|---------------------------------------------------------------|
D|---------------------------------------------------------------|
A|-3---5-7-5-3-5----0--------------------------------------------|
E|---------------------------------------------------------------|

End On:
G|---------------------------------------------------------------|
D|---------------------------------------------------------------|
A|-3-------------------------------------------------------------|
E|---------------------------------------------------------------|



| /  slide up
| \  slide down
| h  hammer-on
| p  pull-off
| ~  vibrato
| +  harmonic
| x  Mute note
            

comments powered by Disqus
↑ Back to top | Big D And The Kids Table Bass for If We Want To. Lyrics for acoustic guitar and electric guitar. Tablatures and chords are parodies/interpretations of the original songs. You may use it for private study, scholarship, research or language learning purposes only