» » »

Draw The Line Tabs (ver.1)

Artists:  A B C D E F G H I J K L M N O P Q R S T U V W X Y Z # 

Draw The Line Tabs (ver.1)

Big D And The Kids Table
Rating:
0/5 (0 votes)

Tabs too difficult? Try these video lessons and learn fast.
                --------------------------------------------------------
Draw the line – Big D and the Kids Table
---------------------------------------------------------
e:---------------------------------------------------------------
B:---------------------------------------------------------------
G:--------------------9-9--7-7---------------------------------------
D:---------7-7-7-7----9-9--7-7---------------------------------------
A:---------7-7-7-7----7-7--5-5---------------------------------------
E:---------5-5-5-5---------------------------------------------------

e:--------5x5x5x5x5x----xxxxxxxxx-------------------------------------
B:--------5x5x5x5x5x----9x9x9x9x9-------------------------------
G:--------6x6x6x6x6x----9x9x9x9x9---------------------------------
D:--------7x7x7x7x7x----9x9x9x9x9--------------------------------------
A:--------7x7x7x7x7x----7x7x7x7x7---------------------------------------
E:--------5x5x5x5x5x-------------------------------------------------------

e:---------------------------------------------------------------
B:---------------------------------------------------------------
G:---------------------------------------------------------------
D: ----7-5--4-4-4-4-4----------------------------------------------------
A:-----7-5--4-4-4-4-4---------------------------------------------------
E:-----5-3--2-2-2-2-2---------------------------------------------------

Madd EZ Kii suka... punk asssss

Big D is the best
            
Tabs too difficult? Try these video lessons and learn fast.


comments powered by Disqus
↑ Back to top | Tablatures and chords are parodies/interpretations of the original songs. You may use it for private study, scholarship, research or language learning purposes only