» » »

Big D And The Kids Table, A Kiss A Week Bass tabs (ver.1)

Artists:  A B C D E F G H I J K L M N O P Q R S T U V W X Y Z # 

A Kiss A Week Bass tabs (ver.1)

Big D And The Kids Table Tabs
 Rating:
4/5 (4 votes)
A Kiss A Week lessons Tabs too difficult? Try these video lessons and learn fast
1
                Tuning: Standard


Verse (intro - 0:50)

G|---------------------------------------------------------------|
D|-3--------------5----3-----------------------------------------|
A|---5p3-5p3-3-----------5p3-5p3---------------------------------|
E|----------------------------------3----------------------------|

G|---------------------------------------------------------------|
D|-3--------------5----3-----------------------------------------|
A|---5p3-5p3-3-----------5p3-5p3---------------------------------|
E|----------------------------------3-0--------------------------|


Chorus (0:50 - 1:03)

G|---------------------------------------------------------------|
D|-----0-3--------------5/7-5-----3------------------------------|
A|-1-1---------5-3--3-3-------------3----------------------------|
E|----------1-1--------------11-1--------------------------------|

G|----------------------------55-5-5/7-10------------------------|
D|-----0-3---------------55-5------------------------------------|
A|-1-1---------5-3--33-3-----------------------------------------|
E|----------1-1--------------------------------------------------|


Verse (1:03 - 1:51)

G|---------------------------------------------------------------|
D|-3--------------5----3-----------------------------------------|
A|---5p3-5p3-3-----------5p3-5p3---------------------------------|
E|----------------------------------3----------------------------|

G|---------------------------------------------------------------|
D|-3--------------5----3-----------------------------------------|
A|---5p3-5p3-3-----------5p3-5p3---------------------------------|
E|----------------------------------3-0--------------------------|


@ 1:32 Do This! , and then back to the verse.

G|--5-4-3--------------------------------------------------------|
D|---------------------------------------------------------------|
A|---------------------------------------------------------------|
E|---------------------------------------------------------------|


Chorus (1:51 - 2:04)

G|---------------------------------------------------------------|
D|-----0-3--------------5/7-5-----3------------------------------|
A|-1-1---------5-3--3-3-------------3----------------------------|
E|----------1-1--------------11-1--------------------------------|

G|----------------------------55-5-5/7-10------------------------|
D|-----0-3---------------55-5------------------------------------|
A|-1-1---------5-3--33-3-----------------------------------------|
E|----------1-1--------------------------------------------------|


Verse (2:04 - 2:15)

G|---------------------------------------------------------------|
D|-3--------------5----3-----------------------------------------|
A|---5p3-5p3-3-----------5p3-5p3---------------------------------|
E|----------------------------------3----------------------------|

G|---------------------------------------------------------------|
D|-3--------------5----3-----------------------------------------|
A|---5p3-5p3-3-----------5p3-5p3---------------------------------|
E|----------------------------------3-0--------------------------|


Bridge (2:16 - 2:41)

G|---------------------------------------------------------------|
D|-----7---------10-10------5-5--------10------------------------|
A|-5-5---7--8888---------333-------333----10---------------------|
E|---------------------------------------------------------------| x4

G|---------------------------------------------------------------|
D|-3-------------------------------------------------------------|
A|---------------------------------------------------------------|
E|---------------------------------------------------------------|



Chorus (2:52 - end)

G|---------------------------------------------------------------|
D|-----0-3--------------5/7-5-----3------------------------------|
A|-1-1---------5-3--3-3-------------3----------------------------|
E|----------1-1--------------11-1--------------------------------|



| /  slide up
| \  slide down
| h  hammer-on
| p  pull-off
| ~  vibrato
| +  harmonic
| x  Mute note
            
Submit corrections

comments powered by Disqus
↑ Back to top | Big D And The Kids Table Bass for A Kiss A Week. Lyrics for acoustic guitar and electric guitar. 1 Tablatures and chords are parodies/interpretations of the original songs. You may use it for private study, scholarship, research or language learning purposes only