>
 >
Steelworker

Steelworker Guitar Tabs

Big Black - Steelworker chords, tabs, tablatures, lyrics

Guitar lessons | Add/correct | Request | Top 50 tabs Artists:  A B C D E F G H I J K L M N O P Q R S T U V W X Y Z 0-9

Steelworker Guitar Tabs – Big Black

CD, Sheet music, Poster

Do you like Steelworker? Share with your friends now
Tabs
steelworker
big black
lungs EP/hammer party compilation


Like Albini said they sure get some mileage outta 2 notes.Play the whole thing
freely with plenty of variations based around these notes.
~~means vibrato or string bend if you ain't got a bar
e|-------------------------------------------------------------------------|
B|-8~-9~~~-----------------------------------------------------------------|
G|-------------------------------------------------------------------------|
D|-------------------------------------------------------------------------|
A|-------------------------------------------------------------------------|
E|-------------------------------------------------------------------------|
After playing that a few times the pace picks up

e|-------------------------------------------------------------------------|
B|-8-888-888-8-8-9~~~------------------------------------------------------|
G|-------------------------------------------------------------------------|
D|-------------------------------------------------------------------------|
A|-------------------------------------------------------------------------|
E|-------------------------------------------------------------------------|
and there's this slight variation(11 is eleventh fret)

e|-------------------------------------------------------------------------|
B|-8-888-888-8-8-99-11-9---------------------------------------------------|
G|-------------------------------------------------------------------------|
D|-------------------------------------------------------------------------|
A|-------------------------------------------------------------------------|
E|-------------------------------------------------------------------------|
The other part(you could play it on the b string of course)

e|-10~-8~-7~-787-6~-676----------------------------------------------------|
B|-------------------------------------------------------------------------|
G|-------------------------------------------------------------------------|
D|-------------------------------------------------------------------------|
A|-------------------------------------------------------------------------|
E|-------------------------------------------------------------------------|
and the most striking variation of that 

e|-10~-8~-7~-787-6~-10-8-6-7-----------------------------------------------|
B|-------------------------------------------------------------------------|
G|-------------------------------------------------------------------------|
D|-------------------------------------------------------------------------|
A|-------------------------------------------------------------------------|
E|-------------------------------------------------------------------------|
Towards the end,the basic part is moved higher

e|-15-151515-151515-15-15-16~~~--------------------------------------------|
B|-------------------------------------------------------------------------|
G|-------------------------------------------------------------------------|
D|-------------------------------------------------------------------------|
A|-------------------------------------------------------------------------|
E|-------------------------------------------------------------------------|

Insane tune huh?





Comments


Popular Big Black tabs & chords
Big Money Tabs
Columbian Necktie Tabs
Fists Of Love Tabs
Jordan Minnesota Tabs
Kitty Empire Tabs
L Dopa Tabs
Sleep! Tabs
Texas Tabs
The Model Tabs
The Power Of Independent Trucking Tabs


Song lyrics



↑ Back to top | Tablatures and chords are parodies/interpretations of the original songs. You may use it for private study, scholarship, research or language learning purposes only
© 2014 AZChords.com Contact us | Privacy policy | DMCA | Add/correct tabs | Request tabs | Top 50 tabs