» » »

Sleep! Tabs (ver.1)

Artists:  A B C D E F G H I J K L M N O P Q R S T U V W X Y Z # 

Sleep! Tabs (ver.1)

Big Black
Rating:
0/5 (0 votes)

Hard to play? Try these video lessons and learn fast.
                "Sleep!" by Big Black


Standard Tuning (e,B,G,D,A,E)

Intro
e------------------------------------|
b------------------------------------|
g------------------------------------|
d------------------------------------|
a-6----6----6----6-------------------|
e------------------------------------|

e------------------------------------|
b------------------------------------|
g------------------------------------|
d------------------------------------|
a-6h7--7----7h8--8----8\-------------|
e------------------------------------|

Verse
e------------------------------------|
b------------------------------------|
g-7--7-7-7-7-7-7---------------------|
d-7--7-7-7-7-7-7--8-8-8-8-8-8-8------|
a-5--5-5-5-5-5-5--8-8-8-8-8-8-8------|
e-----------------6-6-6-6-6-6-6------|x4

e------------------------------------|
b------------------------------------|
g-8--8-8-8-8-8-8---------------------|
d-8--8-8-8-8-8-8--9-9-9-9-9-9-9------|
a-6--6-6-6-6-6-6--9-9-9-9-9-9-9------|
e-----------------7-7-7-7-7-7-7------|x4

e------------------------------------|
b------------------------------------|
g-9--9-9-9-9-9-9---------------------|
d-9--9-9-9-9-9-9--10--10--10--10-----|
a-7--7-7-7-7-7-7--10--10--10--10-----|
e-----------------8---8---8---8------|x2

e------------------------------------|
b------------------------------------|
g-10-101010101010--------------------|
d-10-101010101010-11--11--11--11-----|
a-8--8-8-8-8-8-8--11--11--11--11-----|
e-----------------9---9---9---9------|x2

Chorus
e------------------------------------|
b------------------------------------|
g-6----6----6----6-----6-6-6-6-6-6---|
d-7----7----7----7-----7-7-7-7-7-7---|
a-7----7----7----7-----7-7-7-7-7-7---|
e-5----5----5----5-----5-5-5-5-5-5---|

Solo
e-10--10-10-12--10-12--10-10-10-10-10-10-10-|
b-10--10-10-10--10-10--10-10-10-10-10-10-10-|
g-------------------------------------------|
d-------------------------------------------|
a-------------------------------------------|--|
e-------------------------------------------|  |
                                               }x2
e-10--10-10-12--13-12--10-10-10-10-10-10-10-|  |
b-10--10-10-10--10-10--10-10-10-10-10-10-10-|--|
g-------------------------------------------|
d-------------------------------------------|
a-------------------------------------------|
e-------------------------------------------|

e-11--11-11-13--11-13--11-11-11-11-11-11-11-|
b-11--11-11-11--11-11--11-11-11-11-11-11-11-|
g-------------------------------------------|
d-------------------------------------------|
a-------------------------------------------|--|
e-------------------------------------------|  |
                                               }x2
e-11--11-11-13--14-13--11-11-11-11-11-11-11-|  |
b-11--11-11-11--11-11--11-11-11-11-11-11-11-|--|
g-------------------------------------------|
d-------------------------------------------|
a-------------------------------------------|
e-------------------------------------------|

Break
e------------------------------------|
b------------------------------------|
g-9--9-9-9-9-9-9r--------------------|
d-9--9-9-9-9-9-9r--------------------|
a-7--7-7-7-7-7-7r--------------------|
e------------------------------------|x2

e------------------------------------|
b------------------------------------|
g-10-101010101010r-------------------|
d-10-101010101010r-------------------|
a-8--8-8-8-8-8-8r--------------------|
e------------------------------------|x2

Structure:
Intro
Verse
Chorus
Verse
Chorus
Solo
Break
Chorus

Slide out on the A chord to end the song, and enjoy. :)
            
Hard to play? Try these video lessons and learn fast. | Correct




comments powered by Disqus
↑ Back to top | Tablatures and chords are parodies/interpretations of the original songs. You may use it for private study, scholarship, research or language learning purposes only