» » »

Lovers Carvings Tabs (ver.7)

Artists:  A B C D E F G H I J K L M N O P Q R S T U V W X Y Z # 

Lovers Carvings Tabs (ver.7)

Bibio
Rating:
0/5 (0 votes)

Hard to play? Try these video lessons and learn fast.
                Bibio - Lovers' Carvings


[DGDGBD] Tuning : No Capo


PART 1:


Riff 1

D|------------------------------------------------4-0~-| < (let note ring in repeat)
B|------0---0-------1---1-------0---0-------1---1------|
G|------0---0-------0---0-------0---0-------0---0------|
D|----0---0---0---2---2---2---0---0---0---2---2--------| x3
G|--0-----------0-----------0-----------0-----------0--|
D|-----------------------------------------------------|

D|-------------------------------------------|
B|------0---0-------1---1-------0---0h1-0~~--|
G|------0---0-------0---0-------0---0-0-0~~--|
D|----0---0---0---2---2---2---0---0-0h2------|
G|--0-----------0-----------0-----------0~~--| x1
D|-------------------------------------------|


Riff 2

D|----------------------0~~--|
B|------7---7-------8--------|
G|------0---0-------0--------|
D|----7---7---7---7---7---7--| x2
G|--5-----------5------------|
D|---------------------------|


Riff 1 (played here again)


Riff 3

D|--7-------7---7-------7---9-------9---5-------5----|
B|--7---7---7---7---7---7---5---5---5---5---5---5----|
G|------7-----------7-----------5-----------5--------|
D|----7---7---7---7---7---7---5---5---5---5---5---5--| x3
G|--7-----------------------5------------------------|
D|--------------9-----------------------7------------|


Riff 4

D|--0~--------0-0~--------0-0~--------0-0---------0--|
B|------0---0-------1---1-------3---3-------0---0----|
G|------0---0-------0---0-------0---0-------4---4----|
D|----0---0-------2---2-------4---4-------5---5------| x3
G|--0-----------0-----------0-----------0------------|
D|---------------------------------------------------|

D|----------5-12-5------------|
B|--------5--------5-------5--|
G|------5------------5---5----|
D|----5----------------5------| x2
G|--5-------------------------|
D|----------------------------|


Riff 1 (played here again)


PART 2:

D|---------------------------------------------|
B|--5-7-8-------8-7-5-------5-7-0-------1-3-0--|
G|---------------------------------------------|
D|---------------------------------------------|
G|--5-7-9-------9-7-5-------5-7-0-------2-4-0--|
D|---------------------------------------------|

D|----------------------------------------------------|
B|--5-7-8------12-8-5-------5/7-0-------1-3-0---------|
G|--------------------------------------------0----0--|
D|----------------------------------------------0h2---|
G|--5-7-9------12-9-5-------5/7-0-------2-4-0---------|
D|----------------------------------------------------|


D|-------0----------0-----------------------------|
B|--5-7-8-8----8-7-5-5------5-7-0-------1-3-0-----|
G|---0-0---0----0-0---0------0-0-0-0-----0-0-0-0--|
D|--------------------------------0-----------0---|
G|--5-7-9------9-7-5--------5-7-0-------2-4-0-----|
D|------------------------------------------------|

D|-------0-----------0--------------------------------|
B|--5-7-8-8----12-8-5-5-----5-7-0-------1-3-0---------|
G|---0-0---0-----0-0---0-----0-0-0-0-----0-0--0----0--|
D|--------------------------------0-------------0h2---|
G|--5-7-9------12-9-5-------5-7-0-------2-4-0---------|
D|----------------------------------------------------|

D|--<12>--|
B|--<12>--|
G|--<12>--|
D|--<12>--| (hold harmonic)
G|--<12>--|
D|--<12>--|



Key

~ - let note ring
h - hammer on
p - pull off
/ - slide up
\ - slide down
<>- harmonic
x - tap mute
            
Hard to play? Try these video lessons and learn fast. | Correct




comments powered by Disqus
↑ Back to top | Tablatures and chords are parodies/interpretations of the original songs. You may use it for private study, scholarship, research or language learning purposes only