» » »

Lovers Carvings Tabs (ver.4)

Artists:  A B C D E F G H I J K L M N O P Q R S T U V W X Y Z # 

Lovers Carvings Tabs (ver.4)

Bibio
Rating:
0/5 (0 votes)

Hard to play? Try these video lessons and learn fast.
                This is the part that begins at about 1:28. There are other ways to 

play this/write this out in tablature, but these are the correct 

musical notes.
____________________________________________________

This part is played until the rest of the music comes in.

e|-7--10--7----10--12--8----7--5--3-----------------------|
B|-5---7--8-----8---7--5----5--7--0----5--8--3------------|
G|-------------------------------------5--7--4------------|
D|--------------------------------------------------------|
A|--------------------------------------------------------|
E|--------------------------------------------------------|

e|-7--10--7----10--12--8--8p7--7--5--3--------------------|
B|-5---7--8----12---8--5-------5--7--0----5--8--3---------|
G|----------------------------------------5--7--4---------|
D|----------------------------------------------------5---|
A|-------------------------------------------------5h7----|
E|--------------------------------------------------------|

This part continues for the rest of the song, or until the next guitar part comes in.

e|-7--10--7----10--12--8----7--5--3-----------------------|
B|-5---7--8-----8---7--5----5--7--0----5--8--3------------|
G|-------------------------------------5--7--4------------|
D|--------------------------------------------------------|
A|--------------------------------------------------------|
E|--------------------------------------------------------|

e|-7--10--7----12--10--8--8p7--7--5--3--------------------|
B|-5---7--8----12---8--5-------5--7--0----5--8--3---------|
G|----------------------------------------5--7--4---------|
D|----------------------------------------------------5---|
A|-------------------------------------------------5h7----|
E|--------------------------------------------------------|

p = pull-off
h = hammer-on

tabbbed by easierplans (DBS)
            
Hard to play? Try these video lessons and learn fast. | Correct




comments powered by Disqus
↑ Back to top | Tablatures and chords are parodies/interpretations of the original songs. You may use it for private study, scholarship, research or language learning purposes only