» » »

Bibio, Like A Sundial Tabs (ver.1)

Artists:  A B C D E F G H I J K L M N O P Q R S T U V W X Y Z # 

Like A Sundial Tabs (ver.1)

Bibio Tabs
 Rating:
4/5 (4 votes)
Like A Sundial lessons Tabs too difficult? Try these video lessons and learn fast
1
                LIKE A SUNDIAL By BIBIO

This is the finger picking part he does 
in the intro and again around the middle 
for a verse structure

E|------------------------------------------------------------|
B|-----10-12p10----------7-9p7---------3-5p3---------7-9p7----|
G|----9--------9--------6-----6-------2-----2-------6-----6---|
D|---9----------9------6-------6-----2-------2-----6-------6--|
A|-10------------10---7---------7---3---------3---7---------7-|
E|------------------------------------------------------------|

When the drums and bass come in, he 
does the same progression but with chords

E|-------------------|
B|-10---6----3----6--|
G|-9----6----2----6--|
D|-9----6----2----6--|
A|-10---7----3----7--|
E|-------------------|

Here are the lyrics for your convenience ;)

Please forgive me I will love you
If you mend my broken heart
I will give you if you let me
All the flowers in the park

I am standing like a sundial
Waiting for you til it's dark
Please remember that we're living
This is what we have to start

x3

Please forgive me I was late
Busy fixing broken darts
I will show if you wait
Shoot one through diamonds and hearts

I am watching like a sheriff
High above you as a lark
Please remind me when I'm dreaming
This is where I have to start

x2
            
Submit corrections

comments powered by Disqus
↑ Back to top | Bibio Tabs for Like A Sundial. Lyrics for acoustic guitar and electric guitar. 1 Tablatures and chords are parodies/interpretations of the original songs. You may use it for private study, scholarship, research or language learning purposes only