» » »

Cry Baby Tabs (ver.1)

Artists:  A B C D E F G H I J K L M N O P Q R S T U V W X Y Z # 

Cry Baby Tabs (ver.1)

Bibio
Rating:
0/5 (0 votes)

Hard to play? Try these video lessons and learn fast.
                TUNING: eBF#DAD

I like to use capo on 1º but it's the same, the song doesn't use a 440 tuning so it 
sound right unless you adjust the strings up (or down if you use a capo).

Main:

e|------------------------------|
B|-----2-----2-----2------------|
F#---3-----3-----2-----2--------|
D|-----------------------4------|
A|-------------0-----0----------|
D|-4-----4----------------------|

e|---------------------------|
B|-----0-----0---------------|
F#-----------------3------3--|
D|---0-----0-----4------4----|
A|-2-----2-----4------4------|
D|---------------------------|

e|---------------------------------------------------|
B|---------------------------------------------------|
F#----0-------0------0-----0h2---2-----0--3---3------|
D|-0------0------0------0------0-----0------4------4-|
A|---2------2------------------------------------4---|
D|-----------------0------0--2-----2------4----4-----|

Break:

e|--4--7--5--4---2---0-----4-----------------------------------|
B|----------------------4-----4---2-----2--4--5--7--4---4----2-|
F#-----------------------------------3----------------5----3---|
D|-------------------------------------------------------------|
A|-------------------------------------------------------------|
D|-------------------------------------------------------------|

That's about it, I'll try to tab a little solo there's later on the song if I get some time.
            
Hard to play? Try these video lessons and learn fast. | Correct




comments powered by Disqus
↑ Back to top | Tablatures and chords are parodies/interpretations of the original songs. You may use it for private study, scholarship, research or language learning purposes only